» » »

Misc, Guitarfreak122 Sweet Metal Tabs (ver.1)

Artists:  A B C D E F G H I J K L M N O P Q R S T U V W X Y Z # 

Guitarfreak122 Sweet Metal Tabs (ver.1)

Misc Tabs
Rating:
0/5 (0 votes)
Guitarfreak122 Sweet Metal lessons Tabs too difficult? Try these video lessons and learn fast
                (Riff)
intro/verse

   [--------------------------------------] play x3
   [--------------------------------------]
   [--------------------------------------]
   [-2-2-2--------------------------------]
   [-2-2-2-2---2--------------------------]
   [-0-0-0-0---3~~~-----------------------]
p.m    .....

   [--------------------------------------] then as a tail after every third time use this
   [--------------------------------------]
   [--------------------------------------]
   [-2-2-2--------------------------------]
   [-2-2-2-2---5/7------------------------]
   [-0-0-0-0---3/5------------------------]
       .....

Chorus

   [--------------------1-----------------]
   [--------------1-----3-----------------]
   [--------------2-----2-----------------]
   [--------------2--22-------------------]
   [-22---5r------0--22----2r-------------]
   [-00---3r--5~~----00----0r-------------] repeat, i havent played this im doing it in my head right now??? some feedback 
     ..              ..


   
     


   [--------------------------------------]
   [--------------------------------------]
   [--------------------------------------]
   [---- 5-4-5-7-5-4-0-4~-----6-----------]
   [--7~-----------------7----7~----------]
   [----------------------0---0-----------] this is a nice riff can be put in to the main thing (just mess with it)
            
Submit corrections

comments powered by Disqus
↑ Back to top | Misc Tabs for Guitarfreak122 Sweet Metal. Lyrics for acoustic guitar and electric guitar. Tablatures and chords are parodies/interpretations of the original songs. You may use it for private study, scholarship, research or language learning purposes only