» » »

Misc, Flamenco Tabs (ver.1)

Artists:  A B C D E F G H I J K L M N O P Q R S T U V W X Y Z # 

Flamenco Tabs (ver.1)

Misc Tabs
 Rating:
4/5 (4 votes)
Flamenco lessons Tabs too difficult? Try these video lessons and learn fast
1
                Any questions, comments, e-mail me!!

-----0---0---0---0---------0-----0---0---0---0---------0-----0-----0-----0----
---1---1---------0-------0-----1---1---------0-------0-----0-----0-----0------
-2---------2-----1-----1-----2---------2-----1-----1-----4-----2-----1--------
---------------------2---------------------------2----------------------------
-------------------2---------------------------2------------------------------
---------------0---------------------------0----------------------------------
                                                                              

---------------------------------0---0---0------------------------------------
-----2-----2-----2-----2-----2---0---0---0------------------------------------
---3-----3-----3-----3-----3-----1---1---1------------------------------------
---------------------------------------2--------------------------------------
-0-----2-----0-----2-----0---------2------------------------------------------
-------------------------------0----------------------------------------------
                       (repeat 3 times )                                      

---------------------------0---------0-----|----1---0---1---0-0-0--0--0--0-0--
-----0-----0-----0-----0---0-------0-------|------------------0-0--0--0--0-0--
---2-----2-----2-----2-----1-----1---------|------------------1-1--2--4--2-1--
-------------------------------2-----------|--3---2---3---2---2-2--3--5--3-2--
-----------------------------2-------------|------------------2-2--3--5--3-2--
-1-----3-----1-----3-----0-----------------|------------------0-0--0--0--0-0--
                                                 (repeat 2 times)             

---1---0-------------------------------------------0---------0----------------
-----------3---1---0---------0-----0-----0-----0---0-------0------------------
-----------------------2---2-----2-----2-----2-----1-----1--------------------
-3---2---0---------------------------------------------2----------------------
-------------3---2---0-------------------------------2------------------------
-------------------------1-----3-----1-----3-----0----------------------------
                                                                              

-12-11-9----------------------------------------------------------------------
---------12-10-9--------------------------------------------------------------
-----------------11-9---------------------------------------------------------
----------------------10v-----------------------------------------------------
            
Submit corrections

comments powered by Disqus
↑ Back to top | Misc Tabs for Flamenco. Lyrics for acoustic guitar and electric guitar. 1 Tablatures and chords are parodies/interpretations of the original songs. You may use it for private study, scholarship, research or language learning purposes only