» » »

Misc, Desperado Tabs (ver.1)

Artists:  A B C D E F G H I J K L M N O P Q R S T U V W X Y Z # 

Desperado Tabs (ver.1)

Misc Tabs
Rating:
0/5 (0 votes)
Desperado lessons Tabs too difficult? Try these video lessons and learn fast
                desperado


los loBos






solo
e:-------------------------------------------------------------------------|
B:--14---------14--19p14----14-------14--18p14-----14-----14--18p14-----14-|
G:---------16------------16------16-------------16-----16------------16----|
D:-------------------------------------------------------------------------|
A:-------------------------------------------------------------------------|
E:-------------------------------------------------------------------------|

e:-----------------------------------------------------------------------------------------|
B:--14---------14--19p14----14-------14--18p14-----14-----14--18p14-----14--19-14----19-14-|
G:---------16------------16------16-------------16-----16------------16-----------16-------|
D:-----------------------------------------------------------------------------------------|
A:-----------------------------------------------------------------------------------------|
E:-----------------------------------------------------------------------------------------|

e:----------------------------------------------------------------------------------------|
B:----14-18-14--17p15--17p15p14-15-14p12-14-12p11--12-10p9-10-9p7-9-7p6-7-5p4--3-2--2~~~~-|
G:-16-------------------------------------------------------------------------------------|
D:----------------------------------------------------------------------------------------|
A:----------------------------------------------------------------------------------------|
E:----------------------------------------------------------------------------------------|

e:-------------------------------------------------------------------------5/9-------------|
B:-2-3-5-3-2----------------------------------6-7-9------7-9-10------6-7-9-----12-10-9-----|
G:-----------5-3-2h3p2-3-5-3-2------------6-6--------6-6---------6-6--------------------11-|
D:------------------------------4-2--------------------------------------------------------|
A:----------------------------------4------------------------------------------------------|
E:-----------------------------------------------------------------------------------------|
            
Submit corrections

comments powered by Disqus
↑ Back to top | Misc Tabs for Desperado. Lyrics for acoustic guitar and electric guitar. Tablatures and chords are parodies/interpretations of the original songs. You may use it for private study, scholarship, research or language learning purposes only