» » »

Beginner - Hillbilly Song Tabs (ver.1)

Artists:  A B C D E F G H I J K L M N O P Q R S T U V W X Y Z # 

Beginner - Hillbilly Song Tabs (ver.1)

Misc
Rating:
0/5 (0 votes)

Hard to play? Try these video lessons and learn fast.
                YEEEEEEHAAAAAAAA!!!!!!
this is nice hillbilly song

e--------------------------------------------
B--------------------------------------------
G--------------------------------------------
D---------2-2-------2-2-------2-2------------
A-----2-4-----4-2-------4-2-------4-2--------
E-2-4-------------4---------4----------------

e--------------------------------------------
B--------------------------------------------
G--------------------------------------2-----
D---------2-2-------2-2-------2-2------2-----
A-----2-4-----4-2-------4-2-------4-2--0-----
E-2-4-------------4---------4----------------

thats it.play it fast and it sounds more hillbillyish.
            
Hard to play? Try these video lessons and learn fast. | Correct




comments powered by Disqus
↑ Back to top | Tablatures and chords are parodies/interpretations of the original songs. You may use it for private study, scholarship, research or language learning purposes only