» » »

Beginner - Happy Birthday Tabs (ver.1)

Artists:  A B C D E F G H I J K L M N O P Q R S T U V W X Y Z # 

Beginner - Happy Birthday Tabs (ver.1)

Misc
Rating:
0/5 (0 votes)

Hard to play? Try these video lessons and learn fast.
                E---------------------------------------------------------
B-----------1--0-------------------------------------------
G---0--0--2--0-----------------------------------------------
D---------------------------------------------------------
A---------------------------------------------------------
E---------------------------------------------------------

E---------------------------------------------------------
B-----------3--1------------------------------------------
G---0--0--2--0--------------------------------------------
D---------------------------------------------------------
A---------------------------------------------------------
E---------------------------------------------------------

E--------3--0---------------------------------------------
B--------------1--0---------------------------------------
G---0--0-------------2------------------------------------
D---------------------------------------------------------
A---------------------------------------------------------
E---------------------------------------------------------

E---1--1--0-----------------------------------------------
B------------1--3--1--------------------------------------
G---------------------------------------------------------
D---------------------------------------------------------
A---------------------------------------------------------
E---------------------------------------------------------


That's it. Simple beginners song. Really easy.
            
Hard to play? Try these video lessons and learn fast. | Correct




comments powered by Disqus
↑ Back to top | Tablatures and chords are parodies/interpretations of the original songs. You may use it for private study, scholarship, research or language learning purposes only