» » »

Misc, Beginner - Blues Tabs (ver.3)

Artists:  A B C D E F G H I J K L M N O P Q R S T U V W X Y Z # 

Beginner - Blues Tabs (ver.3)

Misc Tabs
Rating:
0/5 (0 votes)
Beginner - Blues lessons Tabs too difficult? Try these video lessons and learn fast
                (Riff)
This is something I came up with quickly whil I was messin\' around.  Play with it to see if you can make it better, if you can please correct it.

b=bend

intro
E--------------------------------------------------------------------
B--------------------------------------------------------------------
G--------------------------------------------------------------------
D--------------------------------------------------------------------
A--------------------------------------------------------------------
E-0-0-0-0-0-0-0-0-2-2-2-2-2-2-3-2-0-0-0-0-0-0-0-0-0-2-2-2-2-2-2-3-2-0

Main Riff
E--------------------------------------------------------------------
B--------------------------------------------------------------------
G--------------------------------------------------------------------
D---------------2-2---2-2-3-2-0-------------2-2---2-2-3-2-0----------
A---2-2---2-2---0-0---0-0-------2-2---2-2---0-0---0-0-------2-2---2-2
E-0-0-0-0-0-0-0-0-0-0-0-0-------0-0-0-0-0-0-0-0-0-0-0-0-0-0-0-0-0-0-0

E-------------------------
B-------------------------
G-------------------------
D---2-2-2-2-3-2-0---------
A---0-0-0-0-------3-2-----
E-0-0-0-0-0-----------2b-0

That\'s all.
            

comments powered by Disqus
↑ Back to top | Misc Tabs for Beginner - Blues. Lyrics for acoustic guitar and electric guitar. Tablatures and chords are parodies/interpretations of the original songs. You may use it for private study, scholarship, research or language learning purposes only