>
 >
Awesome Blues Riff Please Try

Awesome Blues Riff Please Try Guitar Tabs

Misc - Awesome Blues Riff Please Try chords, tabs, tablatures, lyrics

Guitar lessons | Add/correct | Request | Top 50 tabs Artists:  A B C D E F G H I J K L M N O P Q R S T U V W X Y Z 0-9

Awesome Blues Riff Please Try Guitar Tabs – Misc

CD, Sheet music, Poster

Do you like Awesome Blues Riff Please Try? Share with your friends now
Tabs
this is mi first time making a guitar tab so sorry if there is mistakes 
but this is a blues riff and u can mess around with it and make it sound 
diffrent and stuff
very simple basic riff 4 most rock songs



e---0------0------0-----0-----------------------
b-3---3--2---2--1---1---0--------------------------
g--------------------------------------------
d--------------------------------------------
a--------------------------------------------
E--------------------------------------------


e----------------------------------------
b----------------------------------------
g----------------------------------------
d----------------------------------------
a-0--1--2-----------------------------------
E----------------------------------------



e------------------------------------------
b------------------------------------------
g------------------------------------------
d------------------------------------------
a-2--2----4---4---2--2---4---4---------------------
E-0--0----0---0---0--0---0---0---------------------

e----------------------------------------
b----------------------------------------
g----------------------------------------
d-2---2-----4---4---2---2---4---4----------------
a-0---0-----0---0---0---0---0---0----------------
E----------------------------------------

e-----------------------------------------
b-----------------------------------------
g-----------------------------------------
d-----------------------------------------
a-2--2---4--4---2--2----4--4----------------------
E-0--0---0--0---0--0----0--0----------------------


e------------------------------------------
b------------------------------------------
g------------------------------------------
d-2--2-----4--4----2--2---4--4---------------------
a-0--0-----0--0----0--0---0--0---------------------
E------------------------------------------

e------------------------------------------------
b------------------------------------------------
g------------------------------------------------
d------------------------------------------------
a-9---9---11--11----9---9--11--11----------------------------
E-7---7----7---7----7---7---9---9------------------------

e--------------------------------------------------------
b--------------------------------------------------------
g--------------------------------------------------------
d--------------------------------------------------------
a-7---7---9---9----7----7---9--9---------------------------------
E-5---5---5---5----5----5---5--5---------------------------------

e----------------------------------------------
b----------------------------------------------
g----------------------------------------------
d----------------------------------------------
a--2---2-------4-4------2--2-----4--4------------------
E--0---0-------0-0------0--0-----0--0------------------

               then repeat 
       its a very simple song but it is a basic riff for most rock songs





Comments


Popular Misc tabs & chords
Heart And Souls Bass Tabs
Slap Bass Grooves 1 Bass Tabs
The National Anthem Bass Tabs
Top Gear Theme Bass Tabs
Explosion Chords
Beginner - Blues Riff Tabs
Beginner - Cool Song Tabs
Beginner - Jingle Bells Tabs
Blues On The Double Tabs
Ff7 Airship Tabs


Song lyrics



↑ Back to top | Tablatures and chords are parodies/interpretations of the original songs. You may use it for private study, scholarship, research or language learning purposes only
© 2014 AZChords.com Contact us | Privacy policy | DMCA | Add/correct tabs | Request tabs | Top 50 tabs