» » »

"A Minor" Pentatonic Blues Tabs (ver.1)

Artists:  A B C D E F G H I J K L M N O P Q R S T U V W X Y Z # 

"A Minor" Pentatonic Blues Tabs (ver.1)

Misc
Rating:
0/5 (0 votes)

Hard to play? Try these video lessons and learn fast.
                (Riff)
Key: A minor
I was listening to my guitar teacher improvise and I think i picked something like this up, hard to tab out the rhythm for it, kind of a shuffle feel.

|-----------------------------------------
|--------8-7---5-----------5--------------
|--5h6-------------7-5---6-----7-5-6------
|-----------------------------------------
|-----------------------------------------
|-----------------------------------------
                             
|--------7----6----5----------------------
|--5-5-5----5----5---5-8-5--5-------------
|---------------------------7-------------
|---------------------------6-------------
|---------------------------7--5-6-7------
|-----------------------------------------
            
Hard to play? Try these video lessons and learn fast. | Correct




comments powered by Disqus
↑ Back to top | Tablatures and chords are parodies/interpretations of the original songs. You may use it for private study, scholarship, research or language learning purposes only