» » »

Misc, A Few Cool Guitar Riffs Tabs (ver.1)

Artists:  A B C D E F G H I J K L M N O P Q R S T U V W X Y Z # 

A Few Cool Guitar Riffs Tabs (ver.1)

Misc Tabs
 Rating:
4/5 (4 votes)
A Few Cool Guitar Riffs lessons Tabs too difficult? Try these video lessons and learn fast
                Intro 
h = hammer on                                                                                                                                                                    
p = pull off                                                                                                                                                                     
* = Let ring 
e|--------------------------------------------------                            
B|--------------------------------------------------|                          
G|----------------------------------------------------|                     
D|-----------2---------33---------2---------30---------|         
A|-----3p2--------3p2--------3p2-------3p2---------------|      
D|--0--0-------0--0------0---0-----0--0---------------|

e|----------------------------------------------------                          
B|-----------------------------------------------------|                          
G|------------------------------------------------------|                     
D|-----------2---------33---------2------------3p2p0*------|        
A|-----3p2--------3p2--------3p2-------3p2----------------|      
D|--0--0-------0--0-------0--0------0---0---------------|

Pre-Verse                                                                                                                                                                   
Repeat 4x                                                                                                                                                                    
e|---------------------------------------------                                 
B|---------------------------------------------| 
G|--------------77---------------------99----------| 
D|--------------xx---------------------xx----------| 
A|----8p7--0----55---------7h8---0-----77--------------| 
D|----8p7--0------------0--7h8---0--------------| 

Verse/Pre-Chorus w/ chorus effect                                                                                                                                                                                                   
Repeat as much as needed
e|--------------------------------------|
B|-------------------------------------| 
G|-------------------------------------| 
D|------------------------------------------------| 
A|------------7-----------7-----------8----------8*-| 
D|---0--8p7-----0--8p7-------0-7h8--------0-7h8-------------------|                                                                               
Chorus w/ heavy distorion.
e|--------------------------------------|
B|-------------------------------------| 
G|------------9b-----------9b---------10b------------10b-p-----| 
D|------8p7---x-----8p7----x-----7h8---x-------7h8----x-------------| 
A|------8p7---7b----8p7----7b----7h8---8b------7h8----8b-p| 
D|---0--8p7------0--8p7--------0-7h8---------0-7h8-------------------
            
Submit corrections

comments powered by Disqus
↑ Back to top | Misc Tabs for A Few Cool Guitar Riffs. Lyrics for acoustic guitar and electric guitar. Tablatures and chords are parodies/interpretations of the original songs. You may use it for private study, scholarship, research or language learning purposes only