» » »

Advanced - 1 Hell Tabs (ver.1)

Artists:  A B C D E F G H I J K L M N O P Q R S T U V W X Y Z # 

Advanced - 1 Hell Tabs (ver.1)

Misc
Rating:
0/5 (0 votes)

Hard to play? Try these video lessons and learn fast.
                Check out the band apace

E-------------------------------------------
B-------------------------------------------
G-7-7-7-7-7-7-7-7-7-7-7-7-7-7-7-7-7---------
D-0-0-0-0-0-0-0-0-0-0-0-0-0-0-0-0-0---------
A-5-5-5-5-5-5-5-5-5-5-5-5-5-5-5-5-5---------
D-0-0-0-0-0-0-0-0-0-0-0-0-0-0-0-0-0---------

E-------------------------------------------
B-------------------------------------------
G-------------------------------------------
D-------------------------------------------
A-------------------------------------------
D-0-0-1-2-3-0-7-6-5-0-5-4-3-0-2-1-0---------

E-------------------------------------------  
B-------------------------------------------
G-------------------------------------------
D-0-0-1-2-3-0-7-6-5-0-5-4-3-0-2-1-0---------
A-0-0-1-2-3-0-7-6-5-0-5-4-3-0-2-1-0---------
D-0-0-1-2-3-0-7-6-5-0-5-4-3-0-2-1-0---------

E-------------------------------------------
B-------------------------------------------
G-------------------------------------------
D-0-0-1-2-3-0-7-6-5-0-5-4-3-0-2-1-0---------
A-0-0-1-2-3-0-7-6-5-0-5-4-3-0-2-1-0---------
D-0-0-1-2-3-0-7-6-5-0-5-4-3-0-2-1-0---------

E-------------------------------------------
B-------------------------------------------
G-------------------------------------------
D-0-0-1-2-3-0-7-6-5-0-5-4-3-0-2-1-0---------
A-0-0-1-2-3-0-7-6-5-0-5-4-3-0-2-1-0---------
D-0-0-1-2-3-0-7-6-5-0-5-4-3-0-2-1-0---------

E-------------------------------------------
B-------------------------------------------
G-------------------------------------------
D-------------------------------------------
A-------------------------------------------
D-0-0-1-2-3-0-7-6-5-0-5-4-3-0-2-1-0---------

E-------------------------------------------
B-------------------------------------------
G-7-7-7-7-7-7-7-7-7-7-7-7-7-7-7-7-7---------
D-0-0-0-0-0-0-0-0-0-0-0-0-0-0-0-0-0---------
A-5-5-5-5-5-5-5-5-5-5-5-5-5-5-5-5-5---------
D-0-0-0-0-0-0-0-0-0-0-0-0-0-0-0-0-0---------
            
Hard to play? Try these video lessons and learn fast. | Correct




comments powered by Disqus
↑ Back to top | Tablatures and chords are parodies/interpretations of the original songs. You may use it for private study, scholarship, research or language learning purposes only