» » »

Misc, 9/8 Song Tabs (ver.1)

Artists:  A B C D E F G H I J K L M N O P Q R S T U V W X Y Z # 

9/8 Song Tabs (ver.1)

Misc Tabs
Rating:
0/5 (0 votes)
9/8 Song lessons Tabs too difficult? Try these video lessons and learn fast
                This is cool riff from one of my songs.
It's in 9/8 most of the time,although
there is a 3/4 section. To get the timing
correct I tabbed it to time. each dash = 
1 sixteenth note. So 123456 means play 16th
notes and 1-2-3-4 means play 8th notes.

E|------------------|------------------|------------------|
B|------------------|------------------|------------------|
G|------------------|------------------|------------------|
D|3-3-3-3-3---------|4-4-4-4-4---------|5-5-5-5-5---------|
A|4-4-4-4-4---------|2-2-2-2-2---------|3-3-3-3-3---------|
D|4-4-4-4-4---------|2-2-2-2-2---------|6-6-6-6-6---------|
            

E|------------------|------------------|------------------|
B|------------------|------------------|------------------|
G|------------------|----------------7-|------------------|
D|6-6-6-6-6---------|----7-7-7---------|----------5-5-5---|
A|4-4-4-4-4---------|8-8-5-5-5-7-7-7-5-|0-0-4-4-4-3-3-3-4-|
D|7-7-7-7-7---------|0-0-------6-6-6---|0-0-4-4-4-------4-|
 The first four measures are an intro and a coda. You play the 
 5 8th notes the rest for the rest of the measure (There's a drum
 fill in the song). The next two bars are the chorus. You play it 
 (measure) 1,1,2,2,1,2,1,1,2,2. This is one of my fun songs it's 
 too easy but it's not to hard to still run around and break stuff.

E|------2-----|------2-----|------2-----|
B|----0---0---|----0---0---|----0---0---|
G|--3-------3-|--3-------3-|--3-------3-|
D|2-----------|0-----------|4-----------|
A|------------|------------|------------|
D|------------|------------|------------|
 Then it slows down. This part is in 3/4. It's a verse part. Let
 all notes ring.
            
Submit corrections

comments powered by Disqus
↑ Back to top | Misc Tabs for 9/8 Song. Lyrics for acoustic guitar and electric guitar. Tablatures and chords are parodies/interpretations of the original songs. You may use it for private study, scholarship, research or language learning purposes only