>
 >
Sin For A Sin

Sin For A Sin Guitar Tabs

Miranda Lambert - Sin For A Sin chords, tabs, tablatures, lyrics

Guitar lessons | Add/correct | Request | Top 50 tabs Artists:  A B C D E F G H I J K L M N O P Q R S T U V W X Y Z 0-9

Sin For A Sin Guitar Tabs – Miranda Lambert

CD, Sheet music, Poster

Do you like Sin For A Sin? Share with your friends now
ChordsTabsUkulele
Written by Miranda Lambert & Blake Shelton
Recorded by Miranda Lambert

You can play this with two guitars, one without a capo, the other with a capo on 2.

Guitar 1
Regular Tuning
[No Capo]

      [Intro]
E --------------------------------------------------------------|
B --------------------------------------------------------------|
G --------------------------------------------------------------|
D -----2----2----2----2----2----2----2----2----2----2----2----2-|
A --------------------------------------------------------------|
E ---0----0----0----0----0----0----0----0----0----0----0----0---|

   Go thru that once, then repeat, once you start over, the 2nd guitar should join in.
   When the chord switches to (A) (or G for Guitar 2), then pick this:
E --------------------------------------------------------------|
B --------------------------------------------------------------|
G --------------------------------------------------------------|
D -----2----2----2----2----2----2----2----2----2----2----2----2-|
A ---0----0----0----0----0----0----0----0----0----0----0----0---|
E --------------------------------------------------------------|

Its very simple, just pick the base notes of the E and A chords.  Once you're thru the 
verse,
 you can pick the base note, then the top four strings of the chords.  Just a quick 
on rhythm
 guitar!  If you have been playing for a little bit, you probably knew that, but just 
the
beginners out!

Guitar 2
Regular Tuning
(Capo on 2)

Wait for Guitar 1 to go thru the 1st bar,  join in:
       [Intro]
          Repeat (D) till you get into the verse      (G)
-----2-----2-----2-----2-----2-----3-----3-----3-----3-----3--------|
-----3-----3-----3-----3-----3-----3-----3-----3-----3-----3--------|
-----0h2---2-----0h2---2-----0h2---0-----0-----0-----0-----0--------|
-----0-----0-----0-----0-----0-----0-----0-----0-----0-----0--------|
-----------------------------------0h2---2-----2-----2-----0h2------|
-----------------------------------3-----3-----3-----3-----3--------|

Its just a hammer on, and you can do that thru the whole song on whatever chord you are playing.

I'll put the chords from both guitars together for the first verse and Chorus.
The rhythm guitar (without the capo) will have brackets around the chords like this: [E]
The Melody guitar (Capo on 2) will have regular parenthesis around the chords like this: (D)

[E]
(D) I remember vividly what that vision did to me
[A]                                                [E]
(G) You layin' with her in our (D) bed
[E]
(D) Love can be a tragedy when you do what you did to me
[A]                                       [E]
(G) All I'm seeing now is (D) red

(Chorus)
[E]                                      [A]  [E]                                 [A]
(D) I need to re (C) pent (G) (D) a sin for a (C) sin (G)

(D) Bible told me to forgive all those who trespass against
(G) Tread their feet on sacred (D) ground
(D) Bad things come with consequence what feels good hurts in the end
(G) Don't want to think about that (D) now

(Chorus)
I need to re (C) pent (G) (D) a sin for a (C) sin (G)

[E]
(D) Fire and brimstone, dirt and a headstone
                           [A]
Bury 'em baby, (G) all of our (F) sins
[E]
(D) Hear the thunder six feet under
                                       [A]
Hit your knees, won't (G) do it (F) again

               [E]                         [A]     [E]                         [A]
Inst.:  || (D)  | (D)  | (C)  | (G)  | (D)  | (D)  | (C)  | (G)  ||

               [E]
           || (D)  | (D)  | (D)  | (D)  | (D)  | (D)  | (D)  | (D)  ||
[E]
(D) Guilty pleasure, ease the pain, whiskey runnin' through my veins
[A]                                      [E]
(G) Too late to save you (D) now

(Chorus)
I need to re (C) pent (G) (D) a sin for a (C) sin (G)

(D) Fire and brimstone, dirt and a headstone
Bury 'em baby, (G) all of our (F) sins
(D) Hear the thunder six feet under
Hit your knees, won't (G) do it (F)again

Inst.:  || (D)  | (D)  | (C)  | (G)  | (D)  | (D)  | (C)  | (G)  ||
        || (D)  | (D)  | (D)  | (D)  | (D)  | (D)  | (D)  | (D)  ||
        || (D)  | (D)  | (D)  | (D)  | (D)  | (D)  | (D)  | (D)  ||
        || (D)  | (D)  | (D)  | (D)  | (D)  | (D)  | (D)  | (D)  ||

(Tag)
(D) I remember vividly what that vision (F) did to (A/E) me (D) ---





Comments


Popular Miranda Lambert tabs & chords
All Kinds Of Kinds 3 Chords
Dear Diamond Chords
Girl I Am Chords
Kerosene 1 Chords
White Liar (capo 1) Chords
Guilty In Here Ukulele
Oklahoma Sky Ukulele
Same Old You Ukulele
Virginia Bluebell Ukulele
What About Georgia Ukulele


Song lyrics



↑ Back to top | Tablatures and chords are parodies/interpretations of the original songs. You may use it for private study, scholarship, research or language learning purposes only
© 2014 AZChords.com Contact us | Privacy policy | DMCA | Add/correct tabs | Request tabs | Top 50 tabs