» » »

Miranda Lambert, I Wanna Die Tabs (ver.1)

Artists:  A B C D E F G H I J K L M N O P Q R S T U V W X Y Z # 

I Wanna Die Tabs (ver.1)

Miranda Lambert Tabs
Rating:
0/5 (0 votes)
I Wanna Die lessons Tabs too difficult? Try these video lessons and learn fast
                

Miranda Lambert
 I Wanna Die
Key: Dm


Drop D Tuning
Intro Guitar #2 Single solid strum of Dm
Intro Guitar #1
                             x2  Verse Starts  X~~~~    X~~~~
E---1---0---------------------|----------------------------------------------|
B------------3----------------|----------------------------------------------|
G-----------------------------|----------------------------------------------|
D-----------------------------|----------3--0--------------------------------|
A------------------3---0------|-3--0---------------3--0-------3--0-----------|
D--------------------------0--|-------0--------5--------0------------7--5--0-|

Dm
You know it's so complicated, first you love then you hate it
Dm
Someone's laughing, someone's crying, someone livin', someone's dying
    G
Somebody always looses and we still play the game
        Dm
And the fire will always burn you and we still light the flame
      A                      G
Let's make it up baby, cause I aint gonna fight
              Dm
If you're the death of me darlin', I wanna die

                             x2  Verse Starts  X~~~~    X~~~~
E---1---0---------------------|----------------------------------------------|
B------------3----------------|----------------------------------------------|
G-----------------------------|----------------------------------------------|
D-----------------------------|----------3--0--------------------------------|
A------------------3---0------|-3--0---------------3--0-------3--0-----------|
D--------------------------0--|-------0--------5--------0------------7--5--0-|


You always say that you love me and there is no one above me
Never giving, always takin', never bending, always breaking
I know you aint a liar but you don't tell the truth
And you're walkin' on a wire wearing someone else's shoes
If you're handing out misery I'll be the first in line
If you're the death of me darlin' I wanna die

       G
Tear it up, break it down
       Dm
Put my heart on your sleeve and wear it all over town
  G
I know you're a player but you don't play by the rules
        A                 Bb
And I'm just another in a long line of fools

                            x2  Verse Starts  X~~~~    X~~~~
E---1---0---------------------|----------------------------------------------|
B------------3----------------|----------------------------------------------|
G-----------------------------|----------------------------------------------|
D-----------------------------|----------3--0--------------------------------|
A------------------3---0------|--------------------3--0-------3--0-----------|
D--------------------------0--|---------------5--------0------------7--5--0--|


Yeah it's so complicated, I love then I hate it
I'm laughing, you're crying, you're livin', I'm dyin'
Somebody always looses and we still play the game
Yeah the fire will always burn you and we still light the flame
Let's make it up baby, cause I aint gonna fight
If you're the death of me darlin', I wanna die

Slide guitar solo

Chorus


Yeah it's so complicated, I love then I hate it
I'm laughing you're crying, you're living, I'm dyin'
I know you aint a liar but you don't tell the truth
And you're walkin on a wire wearing someone else's shoes
If you're handing out misery I'll be the first in line
If you're the death of me darlin' I wanna die
OHHHH I wanna die
Tear it up Tear it up
um um um
            

comments powered by Disqus
↑ Back to top | Miranda Lambert Tabs for I Wanna Die. Lyrics for acoustic guitar and electric guitar. Tablatures and chords are parodies/interpretations of the original songs. You may use it for private study, scholarship, research or language learning purposes only