» » »

Miranda Lambert, Greyhound Bound For Nowhere Tabs (ver.1)

Artists:  A B C D E F G H I J K L M N O P Q R S T U V W X Y Z # 

Greyhound Bound For Nowhere Tabs (ver.1)

Miranda Lambert Tabs
Rating:
5/5 (4 votes)
Greyhound Bound For Nowhere lessons Tabs too difficult? Try these video lessons and learn fast
                I'm not sure what the chords are called but this is how she picks them
   D
e|--------------------------------0h2--------------------------0h2--|
B|---3-3----3-3----3-3----3-3----3---3----------------3-3-----3-----|
G|--2-2----0-0----0-0----0-0----2-----2----------------0------------|
D|-0---------------------------0-----------0---------0-------0------|
A|--------3------2------1---------------0h3--3p0--0h2-----0h1-------|
E|------------------------------------------------------------------|

e|------------------------------------------------|
B|---3-3-------3-3------------3-3--------3-3------|
G|--2-2-------0-0------------0-0--------0-0-------|
D|-0----------------------------------------------|
A|-----------3--------------2----------1----------|
E|------------------------------------------------|
Rain on the window makes me lonely

e|---------------------------------------------|
B|---3-3----------3-3--------3-3------3-3------|
G|--2-2----------0-0--------0-0------0-0-------|
D|-0-------------------------------------------|
A|--------------3----------2--------1----------|
E|---------------------------------------------|
And time keeps passing so slowly

     A              F#M            Bm       G
The old man sittin' next to me is fallin' asleep

                                 D
                         e|------0---0h2---|
                         B|---3-3-3-3------|
                         G|--2-2---2-------|
                         D|-0--------------|
                         A|----------------|
         D       A       E|----------------|
On a Greyhound bound for nowhere


e|---------------------------------------------|
B|---3-3----------3-3--------3-3------3-3------|
G|--2-2----------0-0--------0-0------0-0-------|
D|-0-------------------------------------------|
A|--------------3----------2--------1----------|
E|---------------------------------------------|
The sun's going down on my misery

e|---------------------------------------------|
B|---3-3----------3-3--------3-3------3-3------|
G|--2-2----------0-0--------0-0------0-0-------|
D|-0-------------------------------------------|
A|--------------3----------2--------1----------|
E|---------------------------------------------|
Another day gone by with broken dreams
      A                 F#m
That Cell phone I hear ringing
        Bm             G
I keep wishing it was you
         D       A          D
On a Greyhound bound for nowhere


          G                   A
And that ring that you were wearing
  D           Dm7
Don't mean everything
         G              A
And the way you stood staring
         D
As you watched me roll away
     Bm           F#m
She loves you and you need me
               G                 Gm?
And there's somethings we can't share
            D        A         D
I'm on a Greyhound bound for nowhere


e|---------------------------------------------|
B|---3-3----------3-3--------3-3------3-3------|
G|--2-2----------0-0--------0-0------0-0-------|
D|-0-------------------------------------------|
A|--------------3----------2--------1----------|
E|---------------------------------------------|
Bright lights of a city shining up ahead

e|---------------------------------------------|
B|---3-3----------3-3--------3-3------3-3------|
G|--2-2----------0-0--------0-0------0-0-------|
D|-0-------------------------------------------|
A|--------------3----------2--------1----------|
E|---------------------------------------------|
My heart's an*lyzing every word you said

A               F#m
Did you take me for a fool
   Bm              G
Or did you really care
           D        A          D
I'm on a Greyhound bound for nowhere


          G                   A
And that ring that you were wearing
  D           Dm7
Don't mean everything
         G              A
And the way you stood staring
         D
As you watched me roll away
     Bm           F#m
She loves you and you need me
               G                 Gm?
And there's somethings we can't share
            D        A         D
I'm on a Greyhound bound for nowhere


G          A             D
I'm gonna find someplace I can ease my mind
Em          G                A
And try to heal my wounded pride


e|------------------------------------------------|
B|---3-3-------3-3------------3-3--------3-3------|
G|--2-2-------0-0------------0-0--------0-0-------|
D|-0----------------------------------------------|
A|-----------3--------------2----------1----------|
E|------------------------------------------------|
Rain on the window and I'm still lonely

e|---------------------------------------------|
B|---3-3----------3-3--------3-3------3-3------|
G|--2-2----------0-0--------0-0------0-0-------|
D|-0-------------------------------------------|
A|--------------3----------2--------1----------|
E|---------------------------------------------|
And Time keeps on passing so slowly
  A                 F#m
You're with her and I'm alone
             Bm           G
And you're wishing I was there
             D       A       Bm    G
I'm on a Greyhound bound for nowhere
               D       A
We're on a Greyhound bound

e|------------------------------------------------|
B|---3-3-------3-3------------3-3--------3-3------|
G|--2-2-------0-0------------0-0--------0-0-------|
D|-0----------------------------------------------|
A|-----------3--------------2----------1----------|
E|------------------------------------------------|
for nowhere
e|------------------------------------------0h2p0---|
B|---3-3-------3-3------------3-3----------3-----3--|
G|--2-2-------0-0------------0-0--------------------|
D|-0--------------------------------------0---------|
A|-----------3--------------2----------0h1----------|
E|--------------------------------------------------|
End on D

Sorry if its kinda confusing...I don't know the names of alot of the bar chords (if you 
q's or answers I'd appreciate them both!) and if you could comment 'cause this is like 
2nd tab lol...so comments would really help! Thanks!
            

comments powered by Disqus
↑ Back to top | Miranda Lambert Tabs for Greyhound Bound For Nowhere. Lyrics for acoustic guitar and electric guitar. Tablatures and chords are parodies/interpretations of the original songs. You may use it for private study, scholarship, research or language learning purposes only