» » »

Nobody Has To Stay Tabs (ver.1)

Artists:  A B C D E F G H I J K L M N O P Q R S T U V W X Y Z # 

Nobody Has To Stay Tabs (ver.1)

Mirah
Rating:
0/5 (0 votes)

Hard to play? Try these video lessons and learn fast.
                

Standard Tuning


The song is basically the intro repeated throughout with minor variations. I've included 
of the variations to get the idea. It's a pretty piece by Mirah and hopefully just an 
play as a listen.


INTRO:
------------------------------------------------------|
----------------------------------2-2-----------------|
-----2-------1----2---2/4-2-2---2--------2/4----------|
----------2-------------------------------------------|
------------------0---0---0-0-------------------------|
---2---2--0--0----------------------------------------|


------------------------------------------------------|
----------------------------2---2---------------------|
-----2-------1----2--4--2---2-2-2---------------------|
----------2-------------------------------------------|
------------------0--0--0-----------------------------|
---2---2--0--0--------------0------0-0----------------|


VERSE 1:
------------------------------------------------------|
---------------------------------2---2----------------|
-----2-------1----2--2/4--2-2------2-2-2-2/4----------|
----------2--------------------2----------------------|
------------------0--0----0-0----------0-0------------|
---2---2--0--0----------------------------------------|
   Rest up in the gentle sway

------------------------------------------------------|
-----------------------------------2-2----------------|
-----2--------1---2--2/4--2-2--2-2-2-2-2-2/4----------|
----------2-------------------------------------------|
------------------0--0----0-0--0-0-----0-0------------|
---2---2--0-0-0---------------------------------------|
   Sister make a flower place

------------------------------------------------------|
------------------------------------2-----------------|
-----2-------1----2--2/4--2-2-------2----2-2/4--------|
----------2-----------------------2---2---------------|
------------------0--0----0-0-----0---0--0-0----------|
---2---2--0--0----------------------------------------|
   The mother, father, brother grace

------------------------------------------------------|
-------------------------------------2-2--------------|
-----2-------1----2--2/4--2-2----------2--2/4---------|
----------2-----------------------2-------------------|
------------------0--0----0-0-0---0-------0-----------|
---2---2--0--0----------------------------------------|
   A river of stones to keep her safe


CHORUS:
------------------------------------------------------|
-----------------------------------2-2----------------|
-----2-------1----2--2/4-2-2-----2-2-2----2/4---------|
----------2--------------------2----------------------|
------------------0--0---0-0---0----------0-----------|
---2---2--0--0----------------------------------------|
   Come away with me today

------------------------------------------------------|
-----------------------------2------------------------|
-----2-------1----2--4--2----2-2----------------------|
----------2-------------------------------------------|
------------------0--0--0----0-0----------------------|
---2---2--0--0----------------------------------------|
   Everything should be okay

------------------------------------------------------|
-----------------------------2------------------------|
-----2-------1----2--4--2----2-2--2--2/4--------------|
----------2-------------------------------------------|
------------------0--0--0----0----0--0----------------|
---2---2--0--0----------------------------------------|
   Fill your pockets while you pray

------------------------------------------------------|
------------------------------------------------------|
-----2-------1----2--4--2-----------------------------|
----------2-------------------------------------------|
------------------0--0--0-----------------------------|
---2---2--0--0--------------0-0--0-2------------------|
   With some to eat and some to save

------------------------------------------------------|
------------------------------------------------------|
-----2-------1-----2----------------------------------|
----------2-------------------------------------------|
-------------------0-0-0-0----------------------------|
---2---2--0--0-------------------0-2------------------|
   Nobody has to stay

------------------------------------------------------|
---------------------------------------2-2------------|
-----2-------1----2------2--4--2----2--2-2--2-2-------|
----------2-------------------------------------------|
------------------0------0--0--0----0-------0-0-------|
---2---2--0--0----------------------------------------|
   But we wish they would anyways


INTERLUDE
VERSE 2
CHORUS
            
Hard to play? Try these video lessons and learn fast. | Correct




comments powered by Disqus
↑ Back to top | Tablatures and chords are parodies/interpretations of the original songs. You may use it for private study, scholarship, research or language learning purposes only