>
 >
Make It Hot

Make It Hot Guitar Tabs

Mirah - Make It Hot chords, tabs, tablatures, lyrics

Guitar lessons | Add/correct | Request | Top 50 tabs Artists:  A B C D E F G H I J K L M N O P Q R S T U V W X Y Z 0-9

Make It Hot Guitar Tabs – Mirah

CD, Sheet music, Poster

Do you like Make It Hot? Share with your friends now
ChordsTabsUkulele
    G         A11add4 Cmaj7
Okay so I also posted the chords to this song, but I decided to go ahead and tab
the entire thing.  So here's the step by step guitar tab to it.  Enjoy!!!
-Ani

E|----------------------------0--------|
B|------------------------0-------0----|
G|--------------------0-----0---0---0--|
D|------0---------0-----2--------------|
A|----2---2s4---4---4-3---3---3---3----|
E|--3---------5------------------------|

E|----------------------------0--------|
B|------------------------0-------0----|
G|--------------------0-----0---0---0--|
D|------0---------0-----2--------------|
A|----2---2s4---4---4-3---3---3---3----|
E|--3---------5------------------------|

    G       D#/F    Am      Cmaj7
E|-----------------------------------|
B|------------------1-------0--------|
G|----------2-----------2-------0----|
D|------0-------0-----2---0---2---0--|
A|----2---0---0---0-0-------3--------|
E|--3-------2------------------------|
    The door is jammed

E|-----------------------------------|
B|------------------1-------0--------|
G|----------2-----------2-------0----|
D|------0-------0-----2---0---2---0--|
A|----2---0---0---0-0-------3--------|
E|--3-------2------------------------|
    The door slammed shut     And I

E|-----------------------------------|
B|------------------1-------0--------|
G|----------2-----------2-------0----|
D|------0-------0-----2---0---2---0--|
A|----2---0---0---0-0-------3--------|
E|--3-------2------------------------|
 wait for the sound, Wait for the sound

E|-----------------------------------|
B|------------------1-------0--------|
G|----------2-----------2-------0----|
D|------0-------0-----2---0---2---0--|
A|----2---0---0---0-0-------3--------|
E|--3-------2------------------------|

E|-----------------------------------|
B|------------------1-------0--------|
G|----------2-----------2-------0----|
D|------0-------0-----2---0---2---0--|
A|----2---0---0---0-0-------3--------|
E|--3-------2------------------------|
   There    is      one

E|-----------------------------------|
B|------------------1-------0--------|
G|----------2-----------2-------0----|
D|------0-------0-----2---0---2---0--|
A|----2---0---0---0-0-------3--------|
E|--3-------2------------------------|
  Addiction

E|-----------------------------------|
B|------------------1-------0--------|
G|----------2-----------2-------0----|
D|------0-------0-----2---0---2---0--|
A|----2---0---0---0-0-------3--------|
E|--3-------2------------------------|
    I like to keep the power and the

E|-----------------------------------|
B|------------------1-------0--------|
G|----------2-----------2-------0----|
D|------0-------0-----2---0---2---0--|
A|----2---0---0---0-0-------3--------|
E|--3-------2------------------------|
    heat

    C       Cm      G
E|-----------------------------------|
B|--5-------4------------------------|
G|------5-------5---4-------4--------|
D|----5---5---5---5-----5-------5----|
A|-3-------3---------5---5---5---5--|
E|------------------3-------3--------|
            Make it hot

    G       F       E
E|-----------------------------------|
B|-----------------------------------|
G|--4-------2-------1-------1--------|
D|------5-------3-------2-------2----|
A|----5---5---3---3---2---2---2---2--|
E|--3-------1-------0-------0--------|
    Take me over and over and over

E|-----------------------------------|
B|--5-------4------------------------|
G|------5-------5---4-------4--------|
D|----5---5---5---5-----5-------5----|
A|-3-------3---------5---5---5---5--|
E|------------------3-------3--------|
            Make it hot

E|-----------------------------------|
B|-----------------------------------|
G|--4-------2-------1-------1--------|
D|------5-------3-------2-------2----|
A|----5---5---3---3---2---2---2---2--|
E|--3-------1-------0-------0--------|
    Take me over and over and over

E|----------------------------0--------|
B|------------------------0-------0----|
G|--------------------0-----0---0---0--|
D|------0---------0-----2--------------|
A|----2---2s4---4---4-3---3---3---3----|
E|--3---------5------------------------|

E|----------------------------0--------|
B|------------------------0-------0----|
G|--------------------0-----0---0---0--|
D|------0---------0-----2--------------|
A|----2---2s4---4---4-3---3---3---3----|
E|--3---------5------------------------|

E|-----------------------------------|
B|------------------1-------0--------|
G|----------2-----------2-------0----|
D|------0-------0-----2---0---2---0--|
A|----2---0---0---0-0-------3--------|
E|--3-------2------------------------|
    The snow falls

E|-----------------------------------|
B|------------------1-------0--------|
G|----------2-----------2-------0----|
D|------0-------0-----2---0---2---0--|
A|----2---0---0---0-0-------3--------|
E|--3-------2------------------------|
    The snow's all ugly

E|-----------------------------------|
B|------------------1-------0--------|
G|----------2-----------2-------0----|
D|------0-------0-----2---0---2---0--|
A|----2---0---0---0-0-------3--------|
E|--3-------2------------------------|
When it hits the street When it hits the street

E|-----------------------------------|
B|------------------1-------0--------|
G|----------2-----------2-------0----|
D|------0-------0-----2---0---2---0--|
A|----2---0---0---0-0-------3--------|
E|--3-------2------------------------|

E|-----------------------------------|
B|------------------1-------0--------|
G|----------2-----------2-------0----|
D|------0-------0-----2---0---2---0--|
A|----2---0---0---0-0-------3--------|
E|--3-------2------------------------|
    It gets colder

E|-----------------------------------|
B|------------------1-------0--------|
G|----------2-----------2-------0----|
D|------0-------0-----2---0---2---0--|
A|----2---0---0---0-0-------3--------|
E|--3-------2------------------------|
    Arms and shoulders

E|-----------------------------------|
B|------------------1-------0--------|
G|----------2-----------2-------0----|
D|------0-------0-----2---0---2---0--|
A|----2---0---0---0-0-------3--------|
E|--3-------2------------------------|
    Who would've guessed it? C'mon and feel me flex it

E|-----------------------------------|
B|------------------1-------0--------|
G|----------2-----------2-------0----|
D|------0-------0-----2---0---2---0--|
A|----2---0---0---0-0-------3--------|
E|--3-------2------------------------|
    Who would've guessed it? C'mon and feel me flex it

E|----------------------------0--------|
B|------------------------0-------0----|
G|--------------------0-----0---0---0--|
D|------0---------0-----2--------------|
A|----2---2s4---4---4-3---3---3---3----|
E|--3---------5------------------------|
    Make it hot

E|----------------------------0--------|
B|------------------------0-------0----|
G|--------------------0-----0---0---0--|
D|------0---------0-----2--------------|
A|----2---2s4---4---4-3---3---3---3----|
E|--3---------5------------------------|

E|----------------------------0--------|
B|------------------------0-------0----|
G|--------------------0-----0---0---0--|
D|------0---------0-----2--------------|
A|----2---2s4---4---4-3---3---3---3----|
E|--3---------5------------------------|
    Make it hot

E|----------------------------0--------|
B|------------------------0-------0----|
G|--------------------0-----0---0---0--|
D|------0---------0-----2--------------|
A|----2---2s4---4---4-3---3---3---3----|
E|--3---------5------------------------|

E|----------------------------0--------|
B|------------------------0-------0----|
G|--------------------0-----0---0---0--|
D|------0---------0-----2--------------|
A|----2---2s4---4---4-3---3---3---3----|
E|--3---------5------------------------|
    Make it hot                Take me

 G        F        E
 over and over and over





Comments


Popular Mirah tabs & chords
Engine Heart Chords
Light The Match Chords
Location Temporary Chords
Person Person 1 Chords
Special Death Chords
The Forest Chords
The Struggle Chords
Cold Cold Water Ukulele
Dont Die On Me Ukulele
The Forest Ukulele


Song lyrics



↑ Back to top | Tablatures and chords are parodies/interpretations of the original songs. You may use it for private study, scholarship, research or language learning purposes only
© 2014 AZChords.com Contact us | Privacy policy | DMCA | Add/correct tabs | Request tabs | Top 50 tabs