» » »

Minus, Stranded Tabs (ver.1)

Artists:  A B C D E F G H I J K L M N O P Q R S T U V W X Y Z # 

Stranded Tabs (ver.1)

Minus Tabs
 Rating:
4.2/5 (5 votes)
Stranded lessons Tabs too difficult? Try these video lessons and learn fast
                "Stranded" by [MINUS]

Tuning: Db Ab Db Gb Bb Eb

riff 1
eb|---------------------------------------------------------------------------------------|
bb|---------------------------------------------------------------------------------------|
gb|------------------66666666-7777-9999---------------------------------------------------|
db|-6666666666666666-xxxxxxxx-xxxx-xxxx-11111111111111111111111111111111-7777777777777777-|
ab|-4444444444444444-44444444-5555-7777-9-9-9-9-9-9-9-9-9-9-9-9-9-9-9-9--7777777777777777-|
db|-4444444444444444-00000000-0000-0000-9-9-9-9-9-9-9-9-9-9-9-9-9-9-9-9--7777777777777777-|

fill
eb|------------|
bb|------------|
gb|------------|
db|-4----------|
ab|-4----------|
db|-4----------|

riff 2
eb|---------------------------------------------------0-----|
bb|-2h3-2-3-2--3--2h3-2-3-2-----2h3-2-3-2--3--2h3-2-3-------|
gb|--------------------------2---------------------------2--|
db|---------------------------------------------------------|
ab|---------------------------------------------------------|
db|---------------------------------------------------------|

riff 3
eb|-----------------------0--------------------0--|
bb|-----3-2--3------3-2-3--------3-2--3------3----|
gb|---2-----------2------------2-----------2------|
db|-0-----------0------------0-----------0--------|
ab|-----------------------------------------------|
db|-----------------------------------------------|

riff 1

riff 4
eb|------------|
bb|------------|
gb|--------6---|
db|-444444-x-0-|
ab|-444444-4-0-|
db|-444444---0-|

fill
eb|------------|
bb|------------|
gb|------------|
db|-4----------|
ab|-4----------|
db|-4----------|

riff 2
riff 3

riff 1, with this variation the third time
eb|-------------------------------------------------------------------------------------|
bb|-------------------------------------------------------------------------------------|
gb|------------------66666666---7--9----------------------------------------------------|
db|-6666666666666666-xxxxxxxx---x--x--11111111111111111111111111111111-7777777777777777-|
ab|-4444444444444444-44444444---5--7--9-9-9-9-9-9-9-9-9-9-9-9-9-9-9-9--7777777777777777-|
db|-4444444444444444-00000000-0-------9-9-9-9-9-9-9-9-9-9-9-9-9-9-9-9--7777777777777777-|
                         p.m. .

riff 4

riff 5
eb|------------------------------|
bb|--------------------9h10-9----|
gb|--------------11-----------11-|
db|-111111111111-x--0------------|
ab|-111111111111-9--0------------|
db|-111111111111----0------------|
    ^ elevens, not ones

riff 1, with this variation the first time
eb|-----------------------------------------------------------------------------------------|
bb|-----------------------------------------------------------------------------------------|
gb|------------------66666666-7777-9999-----------------------------------------------------|
db|-6666666666666666-xxxxxxxx-xxxx-xxxx-11111111111111111111111111111111-777777777777-12///-|
ab|-4444444444444444-44444444-5555-7777-9-9-9-9-9-9-9-9-9-9-9-9-9-9-9-9--777777777777-12///-|
db|-4444444444444444-00000000-0000-0000-9-9-9-9-9-9-9-9-9-9-9-9-9-9-9-9--777777777777-12///-|

riff 4
            
Submit corrections

comments powered by Disqus
↑ Back to top | Minus Tabs for Stranded. Lyrics for acoustic guitar and electric guitar. Tablatures and chords are parodies/interpretations of the original songs. You may use it for private study, scholarship, research or language learning purposes only