» » »

Ministry, Under My Thumb Tabs (ver.1)

Artists:  A B C D E F G H I J K L M N O P Q R S T U V W X Y Z # 

Under My Thumb Tabs (ver.1)

Ministry Tabs
Rating:
0/5 (0 votes)
Under My Thumb lessons Tabs too difficult? Try these video lessons and learn fast
                

                    MINISTRY & CO-CONSPIRATORS " UNDER MY THUMB "(COVER)

E|---------------------------------------------------------------------------|
B|---------------------------------------------------------------------------|
G|---------------------------------------------------------------------------|
D|------------------------------------------------------------55--77---------|
A|-------22--44-------------------------22--------------55-99--------55--55--|
E|-22-55----------22--22-------00-44-55-----00-00----------------------------|

E|--------------------------------------------------------------------------|
B|--------------------------------------------------------------------------|
G|--------------------------------7-----7--------7-----7--------------------|   X2
D|-----4-----4------2------2------7-----7--------7-----7--------------------|
A|-----4-----4------2------2---5555--5555-----5555--5555--------------------|
E|--2222--2222---0000---0000------------------------------------------------|

                          CHORUS
E|--------------------------------------------------------------------------|
B|---(X4)------------------------------------------(X4)---------------------|
G|-------------7--7---4--4-------------------7------------------------------|
D|7-6/77-------7--7---4--4------4------2-----7---6/7------------------------|
A|7-6/77-------5555---2222------4------2--5555---6/7------------------------|
E|5-4/55---------------------2222---0000---------4/555555-------------------|

       its my favourite ministry cover!i hope you like the tab  8)
            
Submit corrections

comments powered by Disqus
↑ Back to top | Ministry Tabs for Under My Thumb. Lyrics for acoustic guitar and electric guitar. Tablatures and chords are parodies/interpretations of the original songs. You may use it for private study, scholarship, research or language learning purposes only