» » »

Thieves Bass tabs (ver.1)

Artists:  A B C D E F G H I J K L M N O P Q R S T U V W X Y Z # 

Thieves Bass tabs (ver.1)

Ministry
Rating:
5/5 (1 vote)

Hard to play? Try these video lessons and learn fast.
                    Ministry - The mind is a terrible thing to taste
    For bass guitar. All songs are in standard tuning unless noted otherwise.
    I haven't transcribed Test because I don't have it.

    Thieves

    Intro - You don't have to play the repeated part but I do for fun. You must
    slide down from the 10th fret though in unison with the guitar.
       palm mute the 7's                                  x8
    G-------------------------------------------------------|------|
    D*-----------------------------------------------------*|------|
    A*-7-7-7-7-7-7-7-7-7-7-7-7-7-8---7-7-7-7-7-7-7-7-7-7-7-*|-10\--|
    E-------------------------------------------------------|------|

    Verse                               x4
    G--------------------|----------------|------|
    D*-------------------|---------------*|------|
    A*-------7-----------|------7--------*|-10\--|
    E--0--0----0--0-0--1-|-0--0---0--0-0--|------|

    Verse x3 then
    G-------------------|------------------------|
    D-------------------|------------------------|         
    A-------7-----------|------7-----------------|
    E-0--0----0--0-0--1-|-0--0---0--0-0--1b-hold-|

    Chorus           x15          x4                  x2          x4
    G-------------------|-----------|-------------------|-----------|
    D*-----------------*|*---------*|*-----------------*|*---------*|
    A*-----------------*|*---------*|*-----------------*|*---------*|
    E--0-0-0-1-0-0-0-3--|--0-3-2-1--|--0-0-0-1-0-0-0-3--|--0-3-2-1--|

                     x18          x4                  x2          x4
    G-------------------|-----------|-------------------|-----------|
    D*-----------------*|*---------*|*-----------------*|*---------*|
    A*-----------------*|*---------*|*-----------------*|*---------*|
    E--0-0-0-1-0-0-0-3--|--0-3-2-1--|--0-0-0-1-0-0-0-3--|--0-3-2-1--|

                     x10
    G-------------------|----------|
    D*-----------------*|----------|
    A*-----------------*|----------|
    E--0-0-0-1-0-0-0-3--|-0-1bhold-|

    Intro x4 including slide down from 10th fret.
    Verse x4 including slide down from 10th fret.          
    Verse x4 with bend and hold at first fret.
    Whole Chorus sequence.

    Outro                        x4
    G------------------------------|------|
    D*----------------------------*|------|
    A*----------------------------*|------|
    E--0-0-0-1-0-0-0-3-0--0-0-0-1--|-1--0-|
                                                
    Any comments/questions/suggestions? Mail me.
    ----------
    Benjamin

    "Control your life through insanity" - Cliff Burton

    ------------------------------------------------------------------     
            
Hard to play? Try these video lessons and learn fast. | Correct




comments powered by Disqus
↑ Back to top | Tablatures and chords are parodies/interpretations of the original songs. You may use it for private study, scholarship, research or language learning purposes only