» » »

Ministry, The Land Of Rape And Honey Bass tabs (ver.1)

Artists:  A B C D E F G H I J K L M N O P Q R S T U V W X Y Z # 

The Land Of Rape And Honey Bass tabs (ver.1)

Ministry Tabs
 Rating:
4/5 (4 votes)
The Land Of Rape And Honey lessons Tabs too difficult? Try these video lessons and learn fast
                -------------------------------------------------------------------------------
-------------------------------------------------------------------------------

Tuning: Standard

This song actually uses a synth bass.  If you use a pick and play very staccato, 
you can get a close enough sound.


Section 1
   1 e + a 2 e + a 3 e + a 4 e + a
   S S S S S S S S S S S S S S S S
G|---------------------------------|
D|-------3-----------1-----3---1-3-|
A|-2-2-2---R-2-2-2-2---2-2---2-----|
E|---------------------------------|

Section 2
   1 e + a 2 e + a 3 e + a 4 e + a
   S S S S S S S S S S S S S S S S
G|---------------------------------|
D|-------------------3-------------|
A|-4-4-4-4-4-4-4-4-4---4-4-4-4-4-3-|
E|---------------------------------|

===============================================================================
            
Submit corrections

comments powered by Disqus
↑ Back to top | Ministry Bass for The Land Of Rape And Honey. Lyrics for acoustic guitar and electric guitar. Tablatures and chords are parodies/interpretations of the original songs. You may use it for private study, scholarship, research or language learning purposes only