» » »

Senor Peligro Tabs (ver.2)

Artists:  A B C D E F G H I J K L M N O P Q R S T U V W X Y Z # 

Senor Peligro Tabs (ver.2)

Ministry
Rating:
5/5 (1 vote)

Hard to play? Try these video lessons and learn fast.
                -------------------------------------------------------------------------------
                             Senor Peligro - Ministry
-------------------------------------------------------------------------------
PLEASE DON'T ADD ME ON MSN BECAUSE I WON'T ACCEPT YOU IF I DON'T KNOW YOU!! 

Tuning: D, G, C, F, A, D (WHOLE STEP DOWN)

KEY:
P=Palm mute
H=Hammer on/ Pull off
T=Tremelo Pick
|O  O|= Repeat
*=Natural Hamronic

x2
|O = how many times to repeat
                                     X3
|-------------------------------------|---------------------|
|------------------------------------O|---------------------|
|-------------------------------------|---------------------|
|-------------------------------------|---------------------|
|5---------------------------------5-O|---------------------|
|3-0-0-0-0-7-0-0-0-0-6-0-0-0-0-5-0-3--|0-0-0-0-7-0-0-0-9-11-|
   P P P P H P P P P H P P P P H P     P P P P H P P P T T

THEN REPEAT ALL THAT PART, THEN GOES TO
                                                            X2
|------------------------------------------------------------|
|-----------------------------------------------------------O|
|------------------------------------------------------------|
|------------------------------------------------------------|
|O-------13-------12---11---9--------13-------12---11--9--4-O|
|-0-0-0-0--0-0-0-0--0-0--0-0--0-0-0-0--0-0-0-0--0-0--0--0----|
 P P P P  P P P P  P P  P P  P P P P  P P P P  P P  P  P

MAIN RIFF
                           X AS MANY TIMES NEEDED (ABOUT 10-12 I THINK)
|---------------------------|
|---------------------------|
|---------------------------|
|---------------------------|
|2---------2---------3-6-5-8|
|0-0-0-0-0-0-0-0-0-0-1-4-3-6|
   P P P P   P P P P

|------------------------------------------------------------|
|------------------------------------------------------------|
|------------------------------------------------------------|
|------------------------------------------------------------|
|--------13-------12---11---9--------13-------12---11--9--4--|
|-0-0-0-0--0-0-0-0--0-0--0-0--0-0-0-0--0-0-0-0--0-0--0--0----|
  P P P P  P P P P  P P  P P  P P P P  P P P P  P P  P  P

|--------------------------------------------------|
|--------------------------------------------------|
|--------------------------------------------------|
|--------------------------------------------------|
|--------13-------12---11---9--------13------------|
|-0-0-0-0--0-0-0-0--0-0--0-0--0-0-0-0--0-0-0-0-9-11|
  P P P P  P P P P  P P  P P  P P P P  P P P P T T
                                                            X2
|------------------------------------------------------------|
|-----------------------------------------------------------O|
|------------------------------------------------------------|
|------------------------------------------------------------|
|O-------13-------12---11---9--------13-------12---11--9--4-O|
|-0-0-0-0--0-0-0-0--0-0--0-0--0-0-0-0--0-0-0-0--0-0--0--0----|
 P P P P  P P P P  P P  P P  P P P P  P P P P  P P  P  P

                           X SAME AS FIRST TIME
|---------------------------|
|---------------------------|
|---------------------------|
|---------------------------|
|2---------2---------3-6-5-8|
|0-0-0-0-0-0-0-0-0-0-1-4-3-6|

                              X5
|-----------------------------|
|-----------------------------|
|----------------------------O|
|-----------------------------|
|2-8-7-2-8-7-3-8-7-5-8-7-10--O|
|0-6-5-0-6-5-1-6-5-3-6-5-8----|

|------------------------------------|
|---------------------7*-7*--7*-7*-7*|
|------------------------------------|
|------------------------------------|
|2-2----2-2----2-2-------------------|
|0-0----0-0----0-0-------------------|

                                                 X3
|-------------------------------------------------|
|----------------------------------7*-7*--7*-7*-7*|
|-------------------------------------------------|
|-------------------------------------------------|
|2-2-2--2-2--2-2-2--2-2--2-2-2--2-2---------------|
|0-0-0--0-0--0-0-0--0-0--0-0-0--0-0---------------|

USE THE MAIN RIFF AS THE SOLO BACKING THEN

                                       X2
|---------------------------------------|
|------------------------7*-7*--7*-7*-7*|
|---------------------------------------|
|---------------------------------------|
|2---------2---------3-6----------------|
|0-0-0-0-0-0-0-0-0-0-1-4----------------|
   P P P P   P P P P
                                    X3
|------------------------------------|---------------------|
|-----------------------------------O|---------------------|
|------------------------------------|---------------------|
|------------------------------------|---------------------|
|---------------------------------5-O|---------------------|
|-0-0-0-0-7-0-0-0-0-6-0-0-0-0-5-0-3--|0-0-0-0-7-0-0-0-9-11-|
   P P P P H P P P P H P P P P H P    P P P P H P P P T T

                                                            X2
|------------------------------------------------------------|-|
|-----------------------------------------------------------O|-|
|------------------------------------------------------------|-|
|------------------------------------------------------------|-|
|O-------13-------12---11---9--------13-------12---11--9--4-O|2|
|-0-0-0-0--0-0-0-0--0-0--0-0--0-0-0-0--0-0-0-0--0-0--0--0----|0|
 P P P P  P P P P  P P  P P  P P P P  P P P P  P P  P  P
            
Hard to play? Try these video lessons and learn fast. | Correct




comments powered by Disqus
↑ Back to top | Tablatures and chords are parodies/interpretations of the original songs. You may use it for private study, scholarship, research or language learning purposes only