» » »

No W Tabs (ver.1)

Artists:  A B C D E F G H I J K L M N O P Q R S T U V W X Y Z # 

No W Tabs (ver.1)

Ministry
Rating:
5/5 (2 votes)

Tabs too difficult? Try these video lessons and learn fast.
                My second tab.

Drop D - low to high D-A-D-G-B-E

. - Palm mute
\ - slide down
tp - tremolo pick

I'm just going to be giving you the  riffs, not the # of times. This is really an easy 
I think you can figure it out d:


Intro
E|--------------------------------------------------------------------------|
B|--------------------------------------------------------------------------|
G|8\7---7\6---6\5---5\4---8\7---7\6-----------------------------------------|
D|8\7---7\6---6\5---5\4---8\7---7\6---5-4-2---------------------------------|
A|6\5---5\4---4\3---3\2---6\5---5\4---3-2-0-5-3-----------------------------|
E|----0-----0-----0-----0-----0-----0-------5-3-----------------------------|
      .     .     .     .     .     .


this part is played after the intro/every chorus:
E|--------------------------------------------------------------------------|
B|--------------------------------------------------------------------------|
G|--------------------------------------------------------------------------|
D|--------------------------------------------------------------------------|
A|0-3-5-0-3-5-3-5-----------------------------------------------------------|
E|0-3-5-0-3-5-3-5-----------------------------------------------------------|

1st verse riff
E|--------------------------------------------------------------------------|
B|--------------------------------------------------------------------------|
G|7/--------------------8-7/--------------------8-7\------------------------|
D|7/--------------------8-7/--------------------8-7\------------------------|
A|5/-----------5---6----6-5/-----------5---6----6-5\------------------------|
E|----0tp------5-0-6-0--------0tp------5-0-6-0------------------------------|
      .          .   .        .          .   .
and so on

2nd verse riff(part with vocals)
E|--------------------------------------------------------------------------|
B|--------------------------------------------------------------------------|
G|--------------------------------------------------------------------------|
D|--------------------------------------------------------------------------|
A|3---------------3-6--3-6--3-6-8-------------------------------------------|
E|3-3tp-----------3-6--3-6--3-6-8-------------------------------------------|


Chorus
E|--------------------------------------------------------------------------|
B|--------------------------------------------------------------------------|
G|8\7---7\6---6\5---5\4---8\7---7\6-----------------------------------------|
D|8\7---7\6---6\5---5\4---8\7---7\6---5-4-2---------------------------------|
A|6\5---5\4---4\3---3\2---6\5---5\4---3-2-0-5-3-----------------------------|
E|----0-----0-----0-----0-----0-----0-------5-3-----------------------------|
      .     .     .     .     .     .

After the second chorus, they keep repeating the riff that comes right after each chorus.

so this is pretty much all the riffs. Stay Metal \m/
            
Tabs too difficult? Try these video lessons and learn fast.




comments powered by Disqus
↑ Back to top | Tablatures and chords are parodies/interpretations of the original songs. You may use it for private study, scholarship, research or language learning purposes only