» » »

Never Believe Tabs (ver.1)

Artists:  A B C D E F G H I J K L M N O P Q R S T U V W X Y Z # 

Never Believe Tabs (ver.1)

Ministry
Rating:
0/5 (0 votes)

Hard to play? Try these video lessons and learn fast.
                MINISTRY "Never Believe" off of THE MIND IS A TERRIBLE THING TO TASTE

Main Riff
------------------------------------------|
------------------------------------------|
------------------------------------------|
-------------10-10------------------------|
-5-5-8-8-5-5--8-8-------------------------|
-3-3-6-6-3-3------------------------------|

VERSE (on Bass)
------------------------------------------|
------------------------------------------|
------------------------------------------|
-0----0----0----0-------------------------|

Thats it, there is a little solo, but i can't hear it clear enough to tab it.
It sounds like it is off this scale
-------------------------------10-13----------|
-------------------------10-13----------------|
-------------------10-12----------------------|
-------------10-12----------------------------|
-------10-12----------------------------------|
-10-13----------------------------------------|

But again, like most Ministry songs, the main riff is in most of the song.
Ministry is an awesome band.  BUY THE CD!!!   (listen for timing)
            
Hard to play? Try these video lessons and learn fast. | Correct




comments powered by Disqus
↑ Back to top | Tablatures and chords are parodies/interpretations of the original songs. You may use it for private study, scholarship, research or language learning purposes only