» » »

Ministry, Lieslieslies Tabs (ver.1)

Artists:  A B C D E F G H I J K L M N O P Q R S T U V W X Y Z # 

Lieslieslies Tabs (ver.1)

Ministry Tabs
 Rating:
4/5 (6 votes)
Lieslieslies lessons Tabs too difficult? Try these video lessons and learn fast
                Band: Ministry

* Palm Mute
Listen for the correct timing.

e|----------------------------------|
B|----------------------------------|
G|------------------------------7/8-|
D|--0-0-3-4-3-0-3-4-3-0-3-4-3-0-5/6-|
A|--0-0-3-4-3-0-3-4-3-0-3-4-3-0-----| x3
D|--0-0-3-4-3-0-3-4-3-0-3-4-3-0-----|
    * * * * * * * * * * * * * *


e|-----------------------------------|
B|-----------------------------------|
G|------------------7-7-7-7-8-5------|
D|--0-0-3-4-3-0-3-0-5-5-5-5-6-3------|
A|--0-0-3-4-3-0-3-0------------------|
D|--0-0-3-4-3-0-3-0------------------|
    * * * * * * * *


e|-----------------------------|
B|-----------------------------|
G|-----------------------------|
D|--0-0-3-4-3-0-3-0-3-4-3-0-3--| x3
A|--0-0-3-4-3-0-3-0-3-4-3-0-3--|
D|--0-0-3-4-3-0-3-0-3-4-3-0-3--|


e|-----------------------------|
B|-----------------------------|
G|----------------7-7-7-7-8-5--|
D|--0-0-3-4-3-0-3-5-5-5-5-6-3--|
A|--0-0-3-4-3-0-3--------------|
D|--0-0-3-4-3-0-3--------------|


e|-----------------------|
B|-----------------------|
G|--7----10---9---5---6--|
D|--5----8----7---3---4--|
A|-----------------------|
D|-----------------------|
   16x  16x  16x  8x  8x


e|-----------------------------------|
B|-----------------------------------|
G|--8\7-----8\7-----8\7--------------|
D|--6\5-0-0-6\5-0-0-6\5-0-0----------|
A|------0-0-----0-0-----0-0-----6~5--|
D|------0-0-----0-0-----0-0-5~6------|
        * *     * *     * *


e|-----------------------|
B|-----------------------|
G|--7----10---9---5---6--|
D|--5----8----7---3---4--|
A|-----------------------|
D|-----------------------|
   32x  32x  32x  16x  16x (fast as you can)


e|--------------------------------------------------|
B|--------------------------------------------------|
G|--7-7-7-7-7-7-7-7-7-7-7-7-7-7-7-7-----------------|
D|--5-5-5-5-5-5-5-5-5-5-5-5-5-5-5-5-13-12-10-12-12--|
A|----------------------------------13-12-10-12-12--|
D|----------------------------------13-12-10-12-12--|


Whole song and i believe there is no mistake. Listen for the timing.
            
Submit corrections

comments powered by Disqus
↑ Back to top | Ministry Tabs for Lieslieslies. Lyrics for acoustic guitar and electric guitar. Tablatures and chords are parodies/interpretations of the original songs. You may use it for private study, scholarship, research or language learning purposes only