» » »

Ministry, Gangreen Bass tabs (ver.1)

Artists:  A B C D E F G H I J K L M N O P Q R S T U V W X Y Z # 

Gangreen Bass tabs (ver.1)

Ministry Tabs
 Rating:
4/5 (4 votes)
Gangreen lessons Tabs too difficult? Try these video lessons and learn fast
1
                Ministry -  Gangreen
As tabbed for bass by K.L. Sanchez


Standard tuning:
G]---|
D]---|
A]---|
E]---|

*****

Intro
||o-------------------------------|-------------------------------o||
||o-------------------------------|-------------------------------o||
||--------------------------------|--------------------------------|| X4
||---0--1---0--3---0--1---0--3----|---0--3---0--1---0--3---0--1----||
                              |
                              \
                               "I'm the Ministry of death..."

* Tremolo pick two triplets on the E string,
and then lead into the main riff (which is the intro, basically).



Riff 1
||o-------------------------------|------------------------------------o||
||o-------------------------------|------------------------------------o||
||--------------------------------|-------------------------------------||
||---0--1---0--3---0--1---0--3----|--0--3---0--1---0--3---0--1---000000-||


"You scumbag sonofab**ch."


Riff 2 / Verse
||o-------------|---------------|----------|
||o-------------|---------------|----------|
||--------------|---------------|----------|
||--0--0--0--0--|---0--0--0--0--|--000000--|

--------------|-------------|--------------------|
--------------|-------------|--------------------|
--------------|-------------|--------------------|
--0--0--0--0--|---0--0--0---|--0-h1-0-h2-0-h3-3b-|

--------------|---------------|----------|
--------------|---------------|----------|
--------------|---------------|----------|
--0--0--0--0--|---0--0--0--0--|--000000--|

--------------|-------------|-------------------o||
--------------|-------------|-------------------o||
--------------|-------------|--------------------||
--0--0--0--0--|---0--0--0---|--0-h1-0-h2-0-h3-0--||



Chorus
||o-----------------------------------o||
||o-----------------------------------o||
||-------------------------------------||
||--0--0--3-p0-3----5--4--3----0--3----||

Gangreen!



Pre-solo
||----------------------------------------|----------------------------------------|
||----------------------------------------|----------------------------------------|
||----------------------------------------|----------------------------------------|
||---0--1---0--3---0--1---0--3---000000---|---0--1---0--3---0--1---0--3---000000---|


|----------------------------------------|----------------------------------------|
|----------------------------------------|----------------------------------------|
|----------------------------------------|----------------------------------------|
|---0--1---0--3---0--1---0--3---000000---|---0--1---0--3---0--1---0--3---000000---|


|-------------------------------------|----------------------------------------|
|-------------------------------------|----------------------------------------|
|-------------------------------------|----------------------------------------|
|---0--1---0--3---0--1---0--3---------|---0--3---0--1---0--3---0--1------------|


|-------------------------------------|----------------------------------------||
|-------------------------------------|----------------------------------------||
|-------------------------------------|----------------------------------------||
|---0--1---0--3---0--1---0--3---------|---0--3---0--1---0--3---0--1------------||




* Solo underlying rhythm is just the chorus riff.


Outro
||----------------------------------------|----------------------------------------|
||----------------------------------------|----------------------------------------|
||----------------------------------------|----------------------------------------|
||---0--1---0--3---0--1---0--3---000000---|---0--1---0--3---0--1---0--3---000000---|


|----------------------------------------|----------------------------------------|
|----------------------------------------|----------------------------------------|
|----------------------------------------|----------------------------------------|
|---0--3---0--1---0--3---0--1---000000---|---0--3---0--1---0--3---0--1---000000---|

|----------------------------------------|----------------------------------------|
|----------------------------------------|----------------------------------------|
|----------------------------------------|----------------------------------------|
|---0--1---0--3---0--1---0--3---000000---|---0--1---0--3---0--1---0--3---000000---|


|----------------------------------------|----------------------------------------|
|----------------------------------------|----------------------------------------|
|----------------------------------------|----------------------------------------|
|---0--3---0--1---0--3---0--1---000000---|---0--3---0--1---0--3---0--1---000000---|


|-------------------------------------||
|-------------------------------------||
|-------------------------------------||
|---0--1---0--3---0--1---0--3---------||


Hoo-rah!

*****

There. Simple? Yes. Awesome? Most definitely. Maybe it's right and maybe it's
wrong, but I wouldn't be able to make sure any which way until I saw some video.

and while you're at it...

Deuce.
            
Submit corrections

comments powered by Disqus
↑ Back to top | Ministry Bass for Gangreen. Lyrics for acoustic guitar and electric guitar. 1 Tablatures and chords are parodies/interpretations of the original songs. You may use it for private study, scholarship, research or language learning purposes only