» » »

Ministry, Effigy Bass tabs (ver.1)

Artists:  A B C D E F G H I J K L M N O P Q R S T U V W X Y Z # 

Effigy Bass tabs (ver.1)

Ministry Tabs
 Rating:
4/5 (4 votes)
Effigy lessons Tabs too difficult? Try these video lessons and learn fast
1
                In dropped D:

G|-----------------|-----------------|
D|*--2-----------2-|--2-----5-----2-*|
A|*----5-2-5-2-5---|----5-2---2-5---*|
D|-2---------------|2----------------|

G|--------------------------------------|
D|--------------------------------------|
A|00--0---------------00--0-------------|
D|-----55--544--422--2-----55--544--400-|

G|----------|
D|*--------*|
A|*--------*|
D|-2-2-2-2--|


Standard tuning:

G|-----------------|-----------------|
D|*----------------|--------5-------*|
A|*--7-5---5---5-7-|--7-5-------5-7-*|
E|-0-----7---7-----|0-----7---7------|


G|--------------------------------------|
D|--------------------------------------|
A|-----------------------------------55-|
E|55--533--322--200--055--533--322--2---|


G|---------|
D|*-------*|
A|*-------*|
E|-0-0-0-0-|
            
Submit corrections

comments powered by Disqus
↑ Back to top | Ministry Bass for Effigy. Lyrics for acoustic guitar and electric guitar. 1 Tablatures and chords are parodies/interpretations of the original songs. You may use it for private study, scholarship, research or language learning purposes only