» » »

Cuz U R Next Tabs (ver.1)

Artists:  A B C D E F G H I J K L M N O P Q R S T U V W X Y Z # 

Cuz U R Next Tabs (ver.1)

Ministry
Rating:
0/5 (0 votes)

Hard to play? Try these video lessons and learn fast.
                Ok, this is my first tab. I do not have a guitar in front of me so it might be a little 
but Ill do the best i can

Drop D Tuning

---------------|
---------------|
---------------|
-10-12-10-13---|
-10-12-10-13---|
-10-12-10-13---|


------------------------------------------------------------|
------------------------------------------------------------|
------------------------------------------------------------|
------------------------------------------------------10-12-|
------------------------------------------------------10-12-|
-0-0-0-10-0-0-13-12-0-10-0-0-12-0-12-0-(4 times then)-10-12-|


This is the part before the pre chorus

-------------|
-------------|
-------------|
-10-12-10-13-|
-10-12-10-13-|
-10-12-10-13-|


Pre chorus
-------------|
-------------|
-------------|
-7-8-7-5-3-5-|
-7-8-7-5-3-5-|
-7-8-7-5-3-5-|

Play verse again then
Chorus

---------------|--------------             -----------------|
---------------|--------------             -----------------|
---------------|--------------             -----------------|
-7-8-7-5-3-5-1-|------1-1-1-1-1            -1s/-12-12-13-13-|
-7-8-7-5-3-5-1-|------1-1-1-1-1 (4xs)then  -1s/-12-12-13-13-|
-7-8-7-5-3-5-1-|------1-1-1-1-1            -1s/-12-12-13-13-|
                      x x x x

Solo

-14h15p14--14h15h14--14h15p14--14h15p14--14h15p14---|
---------15--------15--------15--------15--------15-|*play 3 times*
----------------------------------------------------|
----------------------------------------------------|
----------------------------------------------------|
----------------------------------------------------|

14h15p14--14h15p14--14-15-17-15-14------------------|
--------15--------15--------------15-15-------------|
----------------------------------------------------|
----------------------------------------------------|
----------------------------------------------------|
----------------------------------------------------|

*Go crazy on this part*
-1514--1514--1514--1514--1514-------------------------------15s/-19-19--|
-----15----15----15----15----15-----------------------------------------|
------------------------------------------------------------------------|
------------------------------------------------------------------------|
--------------------------------(keep with that pattern then)-----------|
------------------------------------------------------------------------|

Play verse and chorus

Outro

----------------------------------------------------------------------------|
----------------------------------------------------------------------------|
----------------------------------------------------------------------------|
---------------------------3---------------------------1-1-1-1-1-1--0----1--|
---------8-7---------5-4---3---------------------------1-1-1-1-1-1--0----1--|
-0-8-7-0-----0-5-4-0-----0-3-------Play few times then-1-1-1-1-1-1--0----1--|

Hope you enjoyed
            
Hard to play? Try these video lessons and learn fast. | Correct




comments powered by Disqus
↑ Back to top | Tablatures and chords are parodies/interpretations of the original songs. You may use it for private study, scholarship, research or language learning purposes only