» » »

Broken Bass tabs (ver.1)

Artists:  A B C D E F G H I J K L M N O P Q R S T U V W X Y Z # 

Broken Bass tabs (ver.1)

Ministry
Rating:
5/5 (1 vote)

Hard to play? Try these video lessons and learn fast.
                "Broken" By Ministry
Animositisomina 2003


Time Signature: 6/8
Tuning: B Standard

Legend:
=======
~ ring out
=======

NOTE FOR GUITAR: In some bars where Al chugs on the low F, he will sometimes
                 play more than exactly 6 notes. He gives it a little
                 galloping kind of feel. This tab is just basically mapping
                 the song out for bass, so if any chords are being played,
                 only the root note is tabbed. Use this tab as well as your
                 ears when learning this song. Oh yeah, and you're on your
                 own for the solo.

[0:00] (Guitar Only Intro)

G |-------------|-------------|-------------|-------------|
A |-------------|-------------|-------------|-------------|
E |-7-7-7-7-7-7-|-7-7-7-7-7-7-|-7-7-7-7-7-7-|-7-7-7-7-7-7-|
B |-------------|-------------|-------------|-------------|

G |-------------|-------------|-------------|-------------|
A |-------------|-------------|-------------|-------------|
E |-7-7-7-7-7-7-|-7-7-7-7-7-7-|-7-7-7-7-7-7-|-7-7-7-7-7-7-|
B |-------------|-------------|-------------|-------------|

G |-------------|-------------|-------------|-------------|
A |-----8-------|-------------|-------8-----|-------------|
E |-8-7---6-----|-------------|---8-7---6---|-------------|
B |---------6-9-|-6-6-6-6-6-6-|-6---------6-|-6-6-6-6-6-6-|

G |-------------|-------------|-------------|-------------|
A |-----8-------|-------------|-------8-----|-------------|
E |-8-7---6-----|-------------|---8-7---6---|-------------|
B |---------6-9-|-6-6-6-6-6-6-|-6---------6-|-6-6-6-6-6-6-|

[0:16] (Bass, Drums, Etc come in)

G |-------------|-------------|-------------|-------------|  \
A |-----8-------|-------------|-------8-----|-------------|   |
E |-8-7---6-----|-------------|---8-7---6---|-------------|   |
B |---------6-9-|-6-6-6-6-6-6-|-6---------6-|-6-6-6-6-6-6-|   |
                                                              |
G |-------------|-------------|-------------|-------------|   |
A |-----8-------|-------------|-------8-----|-------------|   |
E |-8-7---6-----|-------------|---8-7---6---|-------------|   |
B |---------6-9-|-6-6-6-6-6-6-|-6---------6-|-9-6-8-6-7-6-|  /
                                                             > Repeat Twice
G |-------------|-------------|-------------|-------------|  \ 
A |-----8-------|-------------|-------8-----|-------------|   | Lyrics Come In
E |-8-7---6-----|-------------|---8-7---6---|-------------|   | On Second Time
B |---------6-9-|-6-6-6-6-6-6-|-6---------6-|-6-6-6-6-6-6-|   |
                                                              |
G |-------------|-------------|-------------|-------------|   |
A |-----8-------|-------------|-------8-----|-7-7-7-7~    |   |
E |-8-7---6-----|-------------|---8-7---6---|-------------|   |
B |---------6-9-|-6-6-6-6-6-6-|-6---------6-|-------------|  /

[0:50]

G |-------------|-------------|-------------|-------------|
A |-------------|-------------|-------------|-------------|
E |-------------|-------------|-------------|-------------|
B |-9-9-9-9-9-9-|-9-9-9-9-9-9-|-9-9-9-9-9-9-|-8-8-8-8-8-8-|

[0:54]

G |-------------|-------------|-------------|-------------|  \
A |-----8-------|-------------|-------8-----|-------------|   |
E |-8-7---6-----|-------------|---8-7---6---|-------------|   |
B |---------6-9-|-6-6-6-6-6-6-|-6---------6-|-6-6-6-6-6-6-|   |
                                                              |
G |-------------|-------------|-------------|-------------|   |
A |-----8-------|-------------|-------8-----|-------------|   |
E |-8-7---6-----|-------------|---8-7---6---|-------------|   |
B |---------6-9-|-6-6-6-6-6-6-|-6---------6-|-9-6-8-6-7-6-|  /
                                                             > Repeat Twice
G |-------------|-------------|-------------|-------------|  \ 
A |-----8-------|-------------|-------8-----|-------------|   |"Broken" Echoes
E |-8-7---6-----|-------------|---8-7---6---|-------------|   | On First Time
B |---------6-9-|-6-6-6-6-6-6-|-6---------6-|-6-6-6-6-6-6-|   |
                                                              | Lyrics come
G |-------------|-------------|-------------|-------------|   | in again on
A |-----8-------|-------------|-------8-----|-7-7-7-7~    |   | 2nd Repeat
E |-8-7---6-----|-------------|---8-7---6---|-------------|   |
B |---------6-9-|-6-6-6-6-6-6-|-6---------6-|-------------|  /

[1:27] 

G |-------------|-------------|-------------|-------------|  \
A |-------------|-------------|-------------|-------------|   |
E |-8-8-8-8-8-8-|-8-8-8-8-8-8-|-8-8-8-8-8-8-|-8-8-8-8-8-8-|   |
B |-------------|-------------|-------------|-------------|   |
                                                              |
G |-------------|-------------|-------------|-------------|   |
A |-------------|-------------|-------------|-------------|   |
E |-7-7-7-7-7-7-|-7-7-7-7-7-7-|-7-7-7-7-7-7-|-7-7-7-7-7-7-|   |
B |-------------|-------------|-------------|-------------|  /
                                                             > Repeat Twice
G |-------------|-------------|-------------|-------------|  \
A |-------------|-------------|-------------|-------------|   |
E |-8-8-8-8-8-8-|-8-8-8-8-8-8-|-8-8-8-8-8-8-|-8-8-8-8-8-8-|   |
B |-------------|-------------|-------------|-------------|   |
                                                              |
G |-------------|-------------|-------------|-------------|   |
A |-------------|-------------|-------------|-------------|   |
E |-7-7-7-7-7-7-|-7-7-7-7-7-7-|-------------|-------------|   |
B |-------------|-------------|-7-7-7-7-7-7-|-7-7-7-7-7-7-|  /

[2:01]

G |-------------|-------------|-------------|-------------|
A |-------------|-------------|-------8-----|-------------|
E |-------------|-------------|---8-7---6---|-------------|
B |-------------|-------------|-----------6-|-6-6-6-6-6-6-|

[2:05] Guitar Solo

G |-------------|-------------|-------------|-------------|
A |-----8-------|-------------|-------8-----|-------------|
E |-8-7---6-----|-------------|---8-7---6---|-------------|
B |---------6-9-|-6-6-6-6-6-6-|-6---------6-|-6-6-6-6-6-6-|

G |-------------|-------------|-------------|-------------|
A |-----8-------|-------------|-------8-----|-------------|
E |-8-7---6-----|-------------|---8-7---6---|-------------|
B |---------6-9-|-6-6-6-6-6-6-|-6---------6-|-9-6-8-6-7-6-|

G |-------------|-------------|-------------|-------------|
A |-----8-------|-------------|-------8-----|-------------|
E |-8-7---6-----|-------------|---8-7---6---|-------------|
B |---------6-9-|-6-6-6-6-6-6-|-6---------6-|-6-6-6-6-6-6-|

G |-------------|-------------|-------------|-------------|
A |-----8-------|-------------|-------8-----|-7-7-7-7~    |
E |-8-7---6-----|-------------|---8-7---6---|-------------|
B |---------6-9-|-6-6-6-6-6-6-|-6---------6-|-------------|

G |-------------|-------------|-------------|-------------|
A |-------------|-------------|-------------|-------------|
E |-------------|-------------|-------------|-------------|
B |-9-9-9-9-9-9-|-9-9-9-9-9-9-|-9-9-9-9-9-9-|-8-8-8-8-8-8-|

G |-------------|-------------|-------------|-------------|
A |-----8-------|-------------|-------8-----|-------------|
E |-8-7---6-----|-------------|---8-7---6---|-------------|
B |---------6-9-|-6-6-6-6-6-6-|-6---------6-|-6-6-6-6-6-6-|

G |-------------|-------------|-------------|-------------|
A |-------------|-------------|-------------|-------------|
E |-------------|-------------|-------------|-------------|
B |-9-9-9-9-9-9-|-9-9-9-9-9-9-|-9-9-9-9-9-9-|-9-8-8-8-8-8-| 

G |-------------|-------------|-------------|-------------|
A |-----8-------|-------------|-------8-----|-------------|
E |-8-7---6-----|-------------|---8-7---6---|-------------|
B |---------6-9-|-6-6-6-6-6-6-|-6---------6-|-------------|

[2:38]

G |-------------|-------------|-------------|-------------|  \
A |-----8-------|-------------|-------8-----|-------------|   |
E |-8-7---6-----|-------------|---8-7---6---|-------------|   |
B |---------6-9-|-6-6-6-6-6-6-|-6---------6-|-6-6-6-6-6-6-|   |
                                                              |
G |-------------|-------------|-------------|-------------|   |
A |-----8-------|-------------|-------8-----|-------------|   |
E |-8-7---6-----|-------------|---8-7---6---|-------------|   |
B |---------6-9-|-6-6-6-6-6-6-|-6---------6-|-9-6-8-6-7-6-|  /
                                                             > Repeat Twice
G |-------------|-------------|-------------|-------------|  \ 
A |-----8-------|-------------|-------8-----|-------------|   | Lyrics Come In
E |-8-7---6-----|-------------|---8-7---6---|-------------|   | On Second Time
B |---------6-9-|-6-6-6-6-6-6-|-6---------6-|-6-6-6-6-6-6-|   |
                                                              |
G |-------------|-------------|-------------|-------------|   |
A |-----8-------|-------------|-------8-----|-7-7-7-7~    |   |
E |-8-7---6-----|-------------|---8-7---6---|-------------|   |
B |---------6-9-|-6-6-6-6-6-6-|-6---------6-|-------------|  /

[3:12]

G |-------------|-------------|-------------|-------------|  \
A |-------------|-------------|-------------|-------------|   |
E |-8-8-8-8-8-8-|-8-8-8-8-8-8-|-8-8-8-8-8-8-|-8-8-8-8-8-8-|   |
B |-------------|-------------|-------------|-------------|   |
                                                              |
G |-------------|-------------|-------------|-------------|   |
A |-------------|-------------|-------------|-------------|   |
E |-7-7-7-7-7-7-|-7-7-7-7-7-7-|-7-7-7-7-7-7-|-7-7-7-7-7-7-|   |
B |-------------|-------------|-------------|-------------|  /
                                                             > Repeat Twice
G |-------------|-------------|-------------|-------------|  \
A |-------------|-------------|-------------|-------------|   |
E |-8-8-8-8-8-8-|-8-8-8-8-8-8-|-8-8-8-8-8-8-|-8-8-8-8-8-8-|   |
B |-------------|-------------|-------------|-------------|   |
                                                              |
G |-------------|-------------|-------------|-------------|   |
A |-------------|-------------|-------------|-------------|   |
E |-7-7-7-7-7-7-|-7-7-7-7-7-7-|-------------|-------------|   |
B |-------------|-------------|-7-7-7-7-7-7-|-7-7-7-7-7-7-|  /

[3:45]
 
G |-------------|-------------|-------------|-------------|
A |-------------|-------------|-------------|-------------|
E |-------------|-------------|-------------|-------------|
B |-------------|-------------|-------------|-------------|

G |-------------|-------------|-------------|-------------|
A |-------------|-------------|-------------|-------------|
E |-------------|-------------|-------------|-------------|
B |-------------|-------------|-------------|-------------|

[3:54] (Guitar Only)

G |-------------|-------------|-------------|-------------|
A |-------------|-------------|-------------|-------------|
E |-7-7-7-7-7-7-|-7-7-7-7-7-7-|-7-7-7-7-7-7-|-7-7-7-7-7-7-|
B |-------------|-------------|-------------|-------------|

G |-------------|-------------|-------------|-------------|
A |-------------|-------------|-------------|-------------|
E |-7-7-7-7-7-7-|-7-7-7-7-7-7-|-7-7-7-7-7-7-|-7-7-7-7-7-7-|
B |-------------|-------------|-------------|-------------|

[4:02]

G |-------------|-------------|-------------|-------------|  \
A |-----8-------|-------------|-------8-----|-------------|   |
E |-8-7---6-----|-------------|---8-7---6---|-------------|   |
B |---------6-9-|-6-6-6-6-6-6-|-6---------6-|-6-6-6-6-6-6-|  /
                                                             > Repeat Until
G |-------------|-------------|-------------|-------------|  \ Fade Out
A |-----8-------|-------------|-------8-----|-------------|   |(six times)
E |-8-7---6-----|-------------|---8-7---6---|-------------|   |
B |---------6-9-|-6-6-6-6-6-6-|-6---------6-|-9-6-8-6-7-6-|  / 
            
Hard to play? Try these video lessons and learn fast. | Correct




comments powered by Disqus
↑ Back to top | Tablatures and chords are parodies/interpretations of the original songs. You may use it for private study, scholarship, research or language learning purposes only