» » »

Breathe Bass tabs (ver.1)

Artists:  A B C D E F G H I J K L M N O P Q R S T U V W X Y Z # 

Breathe Bass tabs (ver.1)

Ministry
Rating:
4/5 (2 votes)

Hard to play? Try these video lessons and learn fast.
                    Breathe
    Drop D tuning.

    Verse                                                             x14
    G-------------------------------------------------------------------|
    D*-----------------------------------------------------------------*|
    A*--------------------------------------------------------------5\-*|
    D--0--0--0-0-0--0--0--0--0--0---0--0--0-0-0--0--0--0--0-1-2-3-4-----|
    Now and then omit the 1-2-3-4 and replace with 0's. On the last repeat befor
e
    the chorus don't slide down from the 5th fret, just play the chorus.

    Chorus                        x3
    G------------------------------|---------------------|
    D*----------------------------*|---------------------|
    A*-4--4--4-4-4\0--0---0---0---*|-4-4-4-4-4-4-4-------|
    D-------------------2---2---2--|---------------3-2-1-|

    Verse.
    Chorus.
    Verse.
    Chorus.
    Repeat the Verse to fade.   




    Any comments/questions/suggestions? Mail me.
    ----------
    Benjamin

    "Control your life through insanity" - Cliff Burton

    ------------------------------------------------------------------    
            
Hard to play? Try these video lessons and learn fast. | Correct




comments powered by Disqus
↑ Back to top | Tablatures and chords are parodies/interpretations of the original songs. You may use it for private study, scholarship, research or language learning purposes only