» » »

Minatori, Udha E Mbare Tabs (ver.1)

Artists:  A B C D E F G H I J K L M N O P Q R S T U V W X Y Z # 

Udha E Mbare Tabs (ver.1)

Minatori Tabs
Rating:
5/5 (1 vote)
Hard to play? Try these video lessons and learn fast.
                
Udha e mbarë  - Minatori
Danny boy

Intro x 4

           Fmaj7   G/E     Am
e--------0-------0---------0--------0-|
b------1-------3---------1---0-1-0----|
g----2-------4---------2--------------|
d--3-------5---------2----------------|
a-------------------------------------|
e-------------------------------------|

Versa:
           Fmaj7   G/E     Am
e--------0-------0---------0--------0-|
b------1-------3---------1---0-1-0----|
g----2-------4---------2--------------|
d--3-------5---------2----------------|
a-------------------------------------|
e-------------------------------------|


         Udha e mbare te qofte


           Fmaj7   G/E     Am
e--------0-------0---------0--------0-|
b------1-------3---------1---0-1-0----|
g----2-------4---------2--------------|
d--3-------5---------2----------------|
a-------------------------------------|
e-------------------------------------|
           ndoshta gjen me mire

           Fmaj7   G/E     Am
e--------0-------0---------0--------0-|
b------1-------3---------1---0-1-0----|
g----2-------4---------2--------------|
d--3-------5---------2----------------|
a-------------------------------------|
e-------------------------------------|
        Udha e mbare te qofte

           Fmaj7   G/E     Am
e--------0-------0---------0--------0-|
b------1-------3---------1---0-1-0----|
g----2-------4---------2--------------|
d--3-------5---------2----------------|
a-------------------------------------|
e-------------------------------------|
        tani je e lire


Pjesa e dytë:

         C                     Dm
e------------0-----------------1---------------|
b---------1----1------------3----3-------------|
g-------0--------0-------2---------2-----------|
d----2-------------2--0--------------0---------|
a--3-----------------------------------0-------|
e----------------------------------------------|
    Mund te shkosh ku nuk ishe me mua

            F          G           Am
e-----------------------------------------0--|
b-----------1-----------3---------1-0-1-0----|
g---------2-----------4---------2------------|
d-------3-----------5---------2--------------|
a---------------------------0----------------|
e--1----------3------------------------------|
       Mund te kesh cfare nuk kishe

        C                      Dm
e------------0-----------------1------------|
b---------1----1------------3----3----------|
g-------0--------0-------2---------2--------|
d----2-------------2--0--------------0------|
a--3-----------------------------------0----|
e-------------------------------------------|
Mund te besh cfaredo qe te duash


        F          G         Am           Em                  Em9
e------------------------------0-----------0-------0-----------3---------|
b--------1---------3--------1----1-----------0-------0------------0------|
g------2---------4--------2--------2-------------0------0-----0-----0----|
d----3---------5-------2----------------2--------------------2---------2-|
a--------------------0----------------2---------------------2------------|
e-1--------3-------------------------------------------------------------|
    se per mua me nuk je


Refreni:
(heavy dist.)

F5        G5       A5  kalimi A5  G5  F5
Udha e mbare te qofte

F5      G5      A5  kalimi   A5   G5  F5
kesaj i thone fund

F5          G5           A5
mund te qash te cmendesh prej vajit


F5        C5        G5       A5
prej meje, udha e mbare te qofte

 A5           F5          G5               C5      G5         A5
Aaaaaaaaaaa, aaaaaaaaaa, aaaaaaaaaaaaaa,   Udha e mbare te qofte

C5                   D5
Mund te shkosh ku nuk ishe me mua
F5       G5             A5
mund te kesh cfare nuk kishe
C5                 D5
Mund te besh cfaredo qe te duash
         F5   G5        A5   E5
se per mua      me nuk je

Solo tabs for Udha e mbare


e-7b------------7b----8--12-13---15b(17)--12---10------------------------
b-----10------8----10----------------------------13----10fbr-------------
g-----------9------------------------------------------------------------
d------------------------------------------------------------------------
a------------------------------------------------------------------------
e------------------------------------------------------------------------


e------13-12-10----10--12--10------------------------------------------
b---10-----------13-----------13-12-10---------------------------------
g—10-----------------------------------12---9---7/5--7---(7bend)-------
d--------------------------------------------------------------------7-
a----------------------------------------------------------------------
e----------------------------------------------------------------------


e---------------1-0------5---------------------------------------------
b--------------------3-------------------------------------------------
g----4-5--4--2---------------------------------------------------------
d--7-------------------------------------------------------------------
a----------------------------------------------------------------------
e----------------------------------------------------------------------


Akordet janë:

F5 – 133xxx
G5 – 355xxx
A5 – 577xxx
C5 – 355xxx ose 81010xxx
E5 - 0799xx
Udha e mbare

Udha e mbare te qofte
ndoshta gjen me mire
Udha e mbare te qofte
tani je e lire

Mund te shkosh ku nuk ishe me mua
Mund te kesh cfare nuk kishe
Mund te besh cfaredo qe te duash
se per mua me nuk je

Udha e mbare te qofte
kesaj i thone fund
mund te qash te cmendesh prej vajit
prej meje, udha e mbare

T'pata thene nje mije here
jam ai qe jam
mund te shkosh, fati le te t'perkunde
prej meje, udha e mbare te qofte

udha e mbare te qofte
udha e mbare

C5                   D5
Mund te shkosh ku nuk ishe me mua
F5       G5             A5
mund te kesh cfare nuk kishe
C5                 D5
Mund te besh cfaredo qe te duash
         F5   G5        A5   E5
se per mua      me nuk je

udha e mbare te qofte
..................................
udha e mbare, udha e mbare te qofte

Ky eshte versioni origjinal. Suksese!
            

comments powered by Disqus
↑ Back to top | Minatori Tabs for Udha E Mbare. Lyrics for acoustic guitar and electric guitar. Tablatures and chords are parodies/interpretations of the original songs. You may use it for private study, scholarship, research or language learning purposes only