» » »

Minatori, Parsari Tabs (ver.1)

Artists:  A B C D E F G H I J K L M N O P Q R S T U V W X Y Z # 

Parsari Tabs (ver.1)

Minatori Tabs
Rating:
5/5 (1 vote)
Parsari lessons Tabs too difficult? Try these video lessons and learn fast
                Përsëri – Minatori
Danny boy

Capo - vëhet në tastierën e parë (first fret)

Intro x 2
E------------------0----------------|
B--------------0h1---1--------1-----|
G-----------------------0---0-------|
D-------------------------2---------|
A---3p2--3--------------------------|
E-3---------------------------------|

E--------------------0---------0----|
B--------------0h1----1------1------|
G------------------------2-0--------|
D--0--------------------------------|
A----3p2-0~~------------------------|
E-----------------------------------|

E------------------0---------------|
B--------------0h1---1--------1----|
G-----------------------0---0------|
D-------------------------2--------|
A---3p2--3-------------------------|
E-3--------------------------------|


E-------------------------3-----------3-|
B-----------------------3---3-----------|
G-------0------------0--------0----0----|
D----2-------0~~~----------------0------|
A--3------------------------------------|
E---------------------------------------|

Gjatë strofës përveç notave të cilat përdoren në intro
 lajmërohet edhe kjo pjesë:

E---------------1-------------0--------------3-------3--|
B-------------1---1--------1---1-----------3--3-------3-|
G----------2--------2----0--------0------0-----0---0----|
D--0-2-3--------------2-------------2--0---------0------|
A-------------------------------------------------------|
E-------------------------------------------------------|

E---------------1------------0--------------3-----------|
B-------------1--1---------1---1----------3---3---------|
G----------2------2-----0--------0------0------0--------|
D--0-2-3-------------2-------------2--0---------0-------|
A-------------------------------------------------------|
E-------------------------------------------------------|

Refreni:
(me dist. C#5 Bb5 F#5 G#5 )

C#                Bmb              F#                G#
Përsëri        Përsëri          Përsëri          Ti je këtu

Akordet të cilat përdoren gjatë refrenit janë:


    me Capo
C#     X43121               C#5         x466xx
Bmb    X13321               Bb5         x133xx
F#     244322               F#5         244xxx
G#     466544               G#5         466xxx


Solo:

E----------------------------------------------------------|
B----------------------------------------------------------|
G-10~~---10h11-10~ ~---8h9p8~~----5/6--5~~-----------------|
D-----11-------------8----------6----------6/8—6~~---------|
A----------------------------------------------------------|
E----------------------------------------------------------|


E----------------------------------------------------------------|
B-9/11-9~----9--11~13-----13/14-13~11------18/19-18~16-14-end-19-|
G--------10----------13~--------------13~------------------------|
D----------------------------------------------------------------|
A----------------------------------------------------------------|
E----------------------------------------------------------------|

Simbolet të cilat i kam  përdorur janë ndërkombëtare:
h – hummer
/ -  slide
~ - vibrato
p – pull off

Kjo është e tëra!
Shpresoj se do të ju pëlqen edhe juve.

Gjithë të mirat!
            

comments powered by Disqus
↑ Back to top | Minatori Tabs for Parsari. Lyrics for acoustic guitar and electric guitar. Tablatures and chords are parodies/interpretations of the original songs. You may use it for private study, scholarship, research or language learning purposes only