» » »

Miller Steve, Keep On Rockin Me Baby Tabs (ver.1)

Artists:  A B C D E F G H I J K L M N O P Q R S T U V W X Y Z # 

Keep On Rockin Me Baby Tabs (ver.1)

Miller Steve Tabs
 Rating:
4/5 (4 votes)
Keep On Rockin Me Baby lessons Tabs too difficult? Try these video lessons and learn fast
                (Intro)
Keep rockin me baby
Steve miller band


Intro:
					x3                                   x2
e|-------------------------------------------/-------------------------|
B|-------------------------------------------/-------------------------|
G|-------------------------------------------/-------------------------|
D|-----------9-9-----------------------------/-------------------------|
A|-7-7-9---9-7-7-9—--9h11-9h11-9h11-9h11—-9--/-------2-5-0-2-----------|
E|-5-5-7---7-----7------------------------7--/---2-5-------------------|

Verse
e|----------------------------------------------------------------------|
B|----------------------------------------------------------------------|
G|----------------------------------------------------------------------|
D|----------------------------------------------9-9-9-9-9-9-9-9-9-9-9-9-|
A|--7-7-7-7-7-7-7-7-7-7-7-9-9-9-9-9-9-9-9-9-9-9-7-7-7-7-7-7-7-7-7-7-7-7-|
E|--5-5-5-5-5-5-5-5-5-5-5-7-7-7-7-7-7-7-7-7-7-7-------------------------|

Great song, and this is all right, bo ya
            
Submit corrections

comments powered by Disqus
↑ Back to top | Miller Steve Tabs for Keep On Rockin Me Baby. Lyrics for acoustic guitar and electric guitar. Tablatures and chords are parodies/interpretations of the original songs. You may use it for private study, scholarship, research or language learning purposes only