» » »

Miley Cyrus, The Climb Tabs (ver.1)

Artists:  A B C D E F G H I J K L M N O P Q R S T U V W X Y Z # 

The Climb Tabs (ver.1)

Miley Cyrus Tabs
 Rating:
4/5 (4 votes)
The Climb lessons Tabs too difficult? Try these video lessons and learn fast
1
                Artist; Miley Cyrus
Song; The Climb

This is the way i play it. i think its pretty accurate. ENJOY :)


VERSE 1:
E------------------------------------------------------|
B------------------------------------------------------|
G--9-------------------9-------------------------------|
D--9-------------------9-------------------------------|
A--7-------------------6-------------------------------|
E------------------------------------------------------|
   I can almost see it, that dream i'm dreaming but

E------------------------------------------------------|
B------------------------------------------------------|
G--6---------------------------------------------------|
D--6---------------------------------------------------|
A--4---------------------------------------------------|
E------------------------------------------------------|
   there's a voice inside my head saying

E------------------------------------------------------|
B------------------------------------------------------|
G---2--------------------------------------------------|
D---2--------------------------------------------------|
A------------------------------------------------------|
E------------------------------------------------------|
   you'll never reach it

E------------------------------------------------------|
B------------------------------------------------------|
G---9--------------------9-----------------------------|
D---9--------------------9-----------------------------|
A---7--------------------6-----------------------------|
E------------------------------------------------------|
   every step i'm taking, every move i make feels

E------------------------------------------------------|
B------------------------------------------------------|
G--6----------------------2----------------------------|
D--6----------------------2----------------------------|
A--4---------------------------------------------------|
E------------------------------------------------------|
   lost with no direction, my faith is shaking

E------------------------------------------------------|
B------------------------------------------------------|
G------6------------4-------2-----------------------4--|
D------6------------4-------2-----------------------4--|
A------4------------2-------------------------------2--|
E------------------------------------------------------|
   but i gotta keep trying, gotta keep my head held high

CHORUS:
E------------------------------------------------------|
B------------------------------------------------------|
G--9---------------------------------------------------|
D--9---------------------------------------------------|
A--7---------------------------------------------------|
E------------------------------------------------------|
   there's always gonna be another mountain

E------------------------------------------------------|
B------------------------------------------------------|
G--9---------------------------------------------------|
D--9---------------------------------------------------|
A--6---------------------------------------------------|
E------------------------------------------------------|
   i'm always gonna wanna make it move

E------------------------------------------------------|
B------------------------------------------------------|
G--6---------------------------------------------------|
D--6---------------------------------------------------|
A--4---------------------------------------------------|
E------------------------------------------------------|
   always gonna be an uphill battle

E------------------------------------------------------|
B------------------------------------------------------|
G--2---------------------------------------------------|
D--2---------------------------------------------------|
A------------------------------------------------------|
E------------------------------------------------------|
   sometimes i'm gonna have to lose

E------------------------------------------------------|
B------------------------------------------------------|
G--9---------------------------------------------------|
D--9---------------------------------------------------|
A--7---------------------------------------------------|
E------------------------------------------------------|
   ain't about how fast i get there

E------------------------------------------------------|
B------------------------------------------------------|
G---9--------------------------------------2--------4--|
D---9--------------------------------------2--------4--|
A---6-----------------------------------------------2--|
E------------------------------------------------------|
   ain't about what's waiting on the other side

E------------------------------------------------------|
B------------------------------------------------------|
G--9---------------------------------------------------|
D--9---------------------------------------------------|
A--7---------------------------------------------------|
E------------------------------------------------------|
   it's a climb


VERSE 2;
Same as verse 1

the struggle's im facing, the chances im taking
sometimes i knock me down but
no im not breaking
i may not know it, but these are the moments that
im gonna remember most yeah
just gotta keep going

and i, i gotta be strong
just keep pushing on


REPEAT CHORUS;

cause there always gonna be another mountian
im always gona wanna make it move
always gonna be an uphill battle
sometimes im gonna have to lose

aint about how fast i get there
aint about whats waiting on the other side

its the climb

FOR THE SOLO BIT PLAY THIS;

E------------------------------------------------------|
B------------------------------------------------------|
G---9---------9---------6---------2--------------------|
D---9---------9---------6---------2--------------------|
A---7---------6---------4------------------------------|
E------------------------------------------------------|

REPEAT CHORUS

OUTRO;

Play this to end
E------------------------------------------------------|
B------------------------------------------------------|
G---9---------9---------6---------2--------------------|
D---9---------9---------6---------2--------------------|
A---7---------6---------4------------------------------|
E------------------------------------------------------|


finish on this chord
E------------------------------------------------------|
B------------------------------------------------------|
G---9--------------------------------------------------|
D---9--------------------------------------------------|
A---7--------------------------------------------------|
E------------------------------------------------------|
            
Submit corrections

comments powered by Disqus
↑ Back to top | Miley Cyrus Tabs for The Climb. Lyrics for acoustic guitar and electric guitar. 1 Tablatures and chords are parodies/interpretations of the original songs. You may use it for private study, scholarship, research or language learning purposes only