» » »

Miley Cyrus, Butterfly Fly Away Tabs (ver.1)

Artists:  A B C D E F G H I J K L M N O P Q R S T U V W X Y Z # 

Butterfly Fly Away Tabs (ver.1)

Miley Cyrus Tabs
Rating:
4/5 (18 votes)
Butterfly Fly Away lessons Tabs too difficult? Try these video lessons and learn fast
                capo on 9th fret...

e|----5-------5-------5----------232-|
B|-3-3--3--3-3--3--3-3--3--3--335----|
G|---------2-------0-------2---------|
D|-----------------------------------|
A|-----------------------------------|
E|-----------------------------------|

e|-5-------5-------5--------|
B|---3--3-3--3--3-3--3--3-2-|
G|------2-------0-------2-2-|
D|--------------------------|
A|--------------------------|
E|--------------------------|

e|------5-------------------5--------|
B|---3-3--3--------------3-3--3------|
G|-----------------------2-----------|
D|-----------------------------------|
A|-----------------------------------|
E|-----------------------------------|
 You tucked me in turned out the light

e|----5--------------5---------|
B|-3-3--3---------3-3--3-------|
G|-0--------------2------------|
D|-----------------------------|
A|-----------------------------|
E|-----------------------------|
 Kept me safe and sound at night

e|------5--------------5-----------------5---------232-|
B|---3-3--3---------3-3--3------------3-3-3--3--335----|
G|------------------2-----------------0------2---------|
D|-----------------------------------------------------|
A|-----------------------------------------------------|
E|-----------------------------------------------------|
    Little girls depend on things like that

e|------5---------------------5--------|
B|---3-3--3----------------3-3--3------|
G|-------------------------2-----------|
D|-------------------------------------|
A|-------------------------------------|
E|-------------------------------------|
     Brushed my teeth and combed my hair

e|------5-----------------5---------|
B|---3-3--3------------3-3--3-------|
G|---0-----------------2------------|
D|----------------------------------|
A|----------------------------------|
E|----------------------------------|
     Had to drive me everywhere

e|------5----------------5-------------------5---------232---|
B|---3-3--3-----------3-3--3--------------3-3-3--3--335------|
G|--------------------2-------------------0------2-----------|
D|-----------------------------------------------------------|
A|-----------------------------------------------------------|
E|-----------------------------------------------------------|
     You were always there when I look back        You had to

(Here you can also if the last part at 'back' is too difficult for you during singing 
aswell just play:
e|------5----------------5------------------5--------------|
B|---3-3--3-----------3-3--3-------------3-3-3--3-2--------|
G|--------------------2------------------0------2-2--------|
D|---------------------------------------------------------|
A|---------------------------------------------------------|
E|---------------------------------------------------------|
     You were always there when I look back      You had to
it makes it more easier to coordinate it :D)

e|------5-----------5----------|
B|---3-3--3------3-3--3--------|
G|---------------2-------------|
D|-----------------------------|
A|-----------------------------|
E|-----------------------------|
     do it all alone     Make a

e|------5------------5---------|
B|---3-3--3-------3-3--3-------|
G|---0------------2------------|
D|-----------------------------|
A|-----------------------------|
E|-----------------------------|
    living make a home

e|------5----------------5-----------------5---------232----|
B|---3-3--3-----------3-3--3------------3-3-3--3--335-------|
G|--------------------2-----------------0------2------------|
D|----------------------------------------------------------|
A|----------------------------------------------------------|
E|----------------------------------------------------------|
    Must have been as hard as it could be         And when I

e|------5-----------------5-----------------|
B|---3-3--3------------3-3--3---------------|
G|---------------------2--------------------|
D|------------------------------------------|
A|------------------------------------------|
E|------------------------------------------|
    Could'nt sleep at night   Scared things

e|------5----------------5---------|
B|---3-3--3-----------3-3--3-------|
G|---0----------------2------------|
D|---------------------------------|
A|---------------------------------|
E|---------------------------------|
    would'nt turn out right

e|------5----------------5-----------------5---------|
B|---3-3--3-----------3-3--3------------3-3-3--3-2---|
G|--------------------2-----------------0------2-2---|
D|---------------------------------------------------|
A|---------------------------------------------------|
E|---------------------------------------------------|
    You would hold my hand and sing to me

e|-----2-----2--2----------|
B|-------3----3--3--3------|
G|---2-----2---2--2--------|
D|-------------------------|
A|-------------------------|
E|-------------------------|
    Caterpillar in the tree

(...)

I'll update it later, i'm very busy right now
            
Submit corrections

comments powered by Disqus
↑ Back to top | Miley Cyrus Tabs for Butterfly Fly Away. Lyrics for acoustic guitar and electric guitar. Tablatures and chords are parodies/interpretations of the original songs. You may use it for private study, scholarship, research or language learning purposes only