» » »

Miles Davis, In A Silent Way Bass tabs (ver.1)

Artists:  A B C D E F G H I J K L M N O P Q R S T U V W X Y Z # 

In A Silent Way Bass tabs (ver.1)

Miles Davis Tabs
Rating:
3/5 (2 votes)
In A Silent Way lessons Tabs too difficult? Try these video lessons and learn fast
                I was sick of not finding any good tabs, so I figured it out and tabbed it out myself. 
quite sure this is correct.

-------------------------------------------------------------------------------
-------------------------------------------------------------------------------


Tuning: Standard

The first part goes like this. The timing is inconsistent throughout the recording, so 
have to figure that out on your own.

G|---------------|
D|---------------|
A|-----6--4--6---|
E|---------------|
That's it. Now the other part, which goes like this.

G|-------------------------------1-------------|
D|--3--3---------------------1-------3----1----|
A|--------0--0---1--1---3----------------------|
E|---------------------------------------------|

And that's it, repeat those a bunch.

| /  slide up
| \  slide down
| h  hammer-on
| p  pull-off
| ~  vibrato
| +  harmonic
| x  Mute note
===============================================================================
            
Submit corrections

comments powered by Disqus
↑ Back to top | Miles Davis Bass for In A Silent Way. Lyrics for acoustic guitar and electric guitar. Tablatures and chords are parodies/interpretations of the original songs. You may use it for private study, scholarship, research or language learning purposes only