>
 >
Ballad Of A Lonely Man

Ballad Of A Lonely Man Guitar Tabs

Mike Ness - Ballad Of A Lonely Man chords, tabs, tablatures, lyrics

Guitar lessons | Add/correct | Request | Top 50 tabs Artists:  A B C D E F G H I J K L M N O P Q R S T U V W X Y Z 0-9

Ballad Of A Lonely Man Guitar Tabs – Mike Ness

CD, Sheet music, Poster

Do you like Ballad Of A Lonely Man? Share with your friends now
ChordsChords v2TabsUkuleleUkulele v2
This is one of Mike Ness's (from Social D) solo songs
Verse :
| --------------------- |
| --------------------- |
| ------7-------------- |
| --7---7---------7---- |
| --7---5---------7---- |
| --5-------------5---- |
    I'm young and I'm strong 

| ------------------------------------------- |
| ------------------------------------------- |
| -------------------------7----------------- |
| ------------9------------7------------7---- |
| ------------9------------5------------7---- |
| ------------7-------------------------5---- |
I've got this God forsaken world by the balls 

| -------------------------------- |
| -------------------------------- |
| ---------9-------7-------------- |
| ---------9-------7---------7---- |
| ---------7-------5---------7---- |
| ---------------------------5---- |
I've got a one-way ticket to freedom 

| --------------------------------------- |
| --------------------------------------- |
| --------------9------------------------ |
| -------7------9-------------------7---- |
| -------7------7-------------------7---- |
| -------5--------------------------5---- |
Ain't no one now gonna take it from me 

Repeat Verse :

Chorus :
| ------------------------------------ |
| ------------------------------------ |
| ------------7------------------9---- |
| --10--------7------7-----------9---- |
| --10--------5------7-----------7---- |
| --8----------------5---------------- |
     My whole life I could not arrange 

| ------------------------------------ |
| ------------------------------------ |
| ------------7------------------9---- |
| --10--------7------7-----------9---- |
| --10--------5------7-----------7---- |
| --8----------------5---------------- |
    My wicked ways I could never change 

| ------------------------------------ |
| ------------------------------------ |
| ---------------7------9------------- |
| ----10---------7------9--------7---- |
| ----10---------5------7--------7---- |
| ----8--------------------------5---- |
Don't try, don't try now to understand 

| -------------------------------------- |
| -------------------------------------- |
| --------------------9----------------- |
| --7-----------------9------------7---- |
| --7-----------------7------------7---- |
| --5------------------------------5---- |
for this is the ballad of a lonely man 

Repeat Verse
I think that's it, if you have any questions or comments send me a PM.





Comments


Popular Mike Ness tabs & chords
Don't Think Twice 1 Chords
If You Leave Before Me Chords
Once A Day Chords
Don't Think Twice Tabs
Dont Think Twice Tabs
Ballad Of A Lonely Man Ukulele
Cheating At Solitare Ukulele
Dont Think Twice Ukulele
If You Leave Before Me Ukulele
The Devil In Miss Jones Ukulele


Song lyrics



↑ Back to top | Tablatures and chords are parodies/interpretations of the original songs. You may use it for private study, scholarship, research or language learning purposes only
© 2014 AZChords.com Contact us | Privacy policy | DMCA | Add/correct tabs | Request tabs | Top 50 tabs