>
 >
Umiikot-ikot

Umiikot-ikot Bass Tabs

Mike Hanopol - Umiikot-ikot chords, tabs, tablatures, lyrics

Guitar lessons | Add/correct | Request | Top 50 tabs Artists:  A B C D E F G H I J K L M N O P Q R S T U V W X Y Z 0-9

Umiikot-ikot Bass Tabs – Mike Hanopol

CD, Sheet music, Poster

Do you like Umiikot-ikot? Share with your friends now
Bass Tabs
Intro: Rest 4 bars, then . . . 

G|-----------|-------------|
D|-----------|--------5-6--|
A|-----------|-------------|
E|-55-(5)5-5-|-(5)55-3-4---| 4x

G|-------------|-----|
D|-------------|-----|
A|-------------|-----|
E|-55-(5)55-5/-|-8---|

Verse I: 

G|-----------|-------------|
D|-----------|--------5-6--|
A|-----------|-------------|
E|-55-(5)5-5-|-(5)55-3-4---| 6x

G|-------------|-----|
D|-------------|-----|
A|-------------|-----|
E|-55-(5)55-5/-|-8---|

Verse II:

G|-----------|-------------|
D|-----------|--------5-6--|
A|-----------|-------------|
E|-55-(5)5-5-|-(5)55-3-4---| 6x

G|------------|-------------|-----|
D|------------|-------------|-----|
A|------------|-------------|-----|
E|-55-(5)55-5-|-5-7-5-3-0-2-|-5---|

Chorus:

G|----------|----------|----------|----------|
D|----------|----------|----------|----------|
A|----------|-77777777-|----------|----------|
E|-77777777-|----------|-55555-x3-|-2-222222-|

G|----------|----------|----------|----------|----------|---|---|---|------|
D|----------|----------|----------|----------|----------|---|---|---|----6-|
A|-22222222-|----------|-22222222-|-77777777-|-77777777-|---|---|---|------|
E|----------|-33333333-|----------|----------|----------|---|---|---|---4--|

G|-----------|-------------|
D|-----------|--------5-6--|
A|-----------|-------------|
E|-55-(5)5-5-|-(5)55-3-4---| 2x

G|-------------|-----|
D|-------------|-----|
A|-------------|-----|
E|-55-(5)55-5/-|-8---|

Verse III:

G|-----------|-------------|
D|-----------|--------5-6--|
A|-----------|-------------|
E|-55-(5)5-5-|-(5)55-3-4---| 6x

G|------------|-------------|-----|
D|------------|-------------|-----|
A|------------|-------------|-----|
E|-55-(5)55-5-|-5-7-5-3-0-2-|-5---|

Chorus:

G|----------|----------|----------|----------|
D|----------|----------|----------|----------|
A|----------|-77777777-|----------|----------|
E|-77777777-|----------|-55555-x3-|-2-222222-|

G|----------|----------|----------|----------|----------|
D|----------|----------|----------|----------|----------|
A|-22222222-|----------|-22222222-|-77777777-|-77777777-|
E|----------|-33333333-|----------|----------|----------|

Adlib:

G|-----------|-------------|
D|-----------|--------5-6--|
A|-----------|-------------|
E|-55-(5)5-5-|-(5)55-3-4---| 4x

G|------------|------------|
D|------------|------------|
A|------------|------------|
E|-5-----5----|-----5----5-|
  (counts 1/3) (counts 2/4)

G|-------------|-----|
D|-------------|-----|
A|-------------|-----|
E|-5-7-5-3-0-2-|-5---|

Chorus:

G|----------|----------|----------|----------|
D|----------|----------|----------|----------|
A|----------|-77777777-|----------|----------|
E|-77777777-|----------|-55555-x3-|-2-222222-|

G|----------|----------|----------|----------|----------|
D|----------|----------|----------|----------|----------|
A|-22222222-|----------|-22222222-|-77777777-|-77777777-|
E|----------|-33333333-|----------|----------|----------|

Outro:

G|-----------|-------------|
D|-----------|--------5-6--|
A|-----------|-------------|
E|-55-(5)5-5-|-(5)55-3-4---| 7x

G|------------|------------|-------|
D|------------|------------|-------|
A|------------|------------|-------|
E|-5-----5----|-----5----5-|---3-4-|
  (counts 1/3) (counts 2/4)

G|-----------|-------------|
D|-----------|--------5-6--|
A|-----------|-------------|
E|-55-(5)5-5-|-(5)55-3-4---| 3x

G|------------|------------|-------|
D|------------|------------|-------|
A|------------|------------|-------|
E|-5-----5----|-----5----5-|---3-4-|
  (counts 1/3) (counts 2/4)

G|-----------|-------------|
D|-----------|--------5-6--|
A|-----------|-------------|
E|-55-(5)5-5-|-(5)55-3-4---| 3x

G|------------|------------|-------|
D|------------|------------|-------|
A|------------|------------|-------|
E|-5-----5----|-----5----5-|---3-4-|
  (counts 1/3) (counts 2/4)

G|-----------|-------------|
D|-----------|--------5-6--|
A|-----------|-------------|
E|-55-(5)5-5-|-(5)55-3-4---| 3x

G|------------|------------|-------|
D|------------|------------|-------|
A|------------|------------|-------|
E|-5-----5----|-----5----5-|---3-4-| to fade
  (counts 1/3) (counts 2/4)





Comments


Popular Mike Hanopol tabs & chords
Baguhin Ang Mundo Chords
Bayan Ni Juan Chords
Buhay Musikero Chords
Buksan Chords
Ganyan Ang Pag-ibig Chords
Ichon Chords
Kayabangan Chords
No Touch Chords
Upos Na Lang Chords
Kayabangan Ukulele


Song lyrics



↑ Back to top | Tablatures and chords are parodies/interpretations of the original songs. You may use it for private study, scholarship, research or language learning purposes only
© 2014 AZChords.com Contact us | Privacy policy | DMCA | Add/correct tabs | Request tabs | Top 50 tabs