» » »

Mike Hanopol, Tulungan Natin Bass tabs (ver.1)

Artists:  A B C D E F G H I J K L M N O P Q R S T U V W X Y Z # 

Tulungan Natin Bass tabs (ver.1)

Mike Hanopol Tabs
 Rating:
4/5 (4 votes)
Tulungan Natin lessons Tabs too difficult? Try these video lessons and learn fast
                Intro:

G|-------4-|-------7-|-9-7---7---|-7-4-----|
D|---5-7---|---5-7---|-----9---9-|-----7-5-|
A|-7-------|-7-------|-----------|---------|
E|---------|---------|-----------|---------| 2x

G|------------------|----------|-----------------|----------|
D|----------------7-|-9-7------|---------------7-|-9-7------|
A|--------------9---|-----9-75-|-------------9---|-----9-75-|
E|-777777-----------|----------|-777777----------|----------|

G|-----------------|-5-4-5-7-9-~~~-|---|---|---|---|
D|-------4-5-4-5-7-|---------------|---|---|---|---|
A|-7-5-7-----------|---------------|---|---|---|---|
E|-----------------|---------------|---|---|---|---|

Verse I: Rest

Verse II: 

G|-----------|----------|----------|----------|
D|-----------|----------|----------|----------|
A|-7---------|-3--------|-5--------|-7--------|
E|-----------|----------|----------|----------|

G|-----------|----------|----------|-----------|
D|-----------|----------|----------|-------5---|
A|-7---------|-3--------|-5--------|-7-------7-|
E|-----------|----------|----------|-----------|

G|-----------|----------|----------|-------------|
D|-7---------|----------|----------|---------5---|
A|-----------|-5--------|----------|-------7---7-|
E|-----------|----------|-5--------|-7-----------|

G|-----------|----------|----------|-------|
D|-7---------|----------|----------|-------|
A|-----------|-5--------|----------|-------|
E|-----------|----------|-5--------|-77777-|

Chorus:

G|------|---------|
D|---45-|-457-579-|
A|-7----|---------|
E|------|---------| 3x

G|-----------|---------------|-----------|-----------|
D|------7777-|-9999-10101010-|-9999-9999-|-9---------|
A|-7777------|---------------|-----------|-----------|
E|-----------|---------------|-----------|-----------|

G|-------4-|-------7-|-9-7---7---|-7-4-----|
D|---5-7---|---5-7---|-----9---9-|-----7-5-|
A|-7-------|-7-------|-----------|---------|
E|---------|---------|-----------|---------|

Verse III:

G|----------|----------|----------|---------------|
D|----------|----------|----------|---------5-----|
A|-77-777-7-|-33-333-3-|-55-555-5-|-77-5-5h7-7-55-|
E|----------|----------|----------|---------------|

G|----------|----------|----------|--------------|
D|----------|----------|----------|-----------5--|
A|-77-777-7-|-33-333-3-|-55-555-5-|-77-777-5h7-7-|
E|----------|----------|----------|--------------|

G|----------|---------------|----------|---------------|
D|----------|-----------5---|----------|----------5----|
A|----------|-55-555-5h7-75-|----------|-------5h7-75--|
E|-55-555-5-|---------------|-55-555-5-|-77-77-------7-|

G|----------|---------------|----------|---------------|
D|----------|-----------5---|----------|-----------5---|
A|----------|-55-555-5h7-75-|----------|--------5h7-75-|
E|-55-555-5-|---------------|-55-555-5-|-77-777--------|

Verse IV:

G|----------|----------|----------|---------------|
D|----------|----------|----------|---------5-----|
A|-77-777-7-|-33-333-3-|-55-555-5-|-77-5-5h7-7-55-|
E|----------|----------|----------|---------------|

G|----------|----------|----------|--------------|
D|----------|----------|----------|-----------5--|
A|-77-777-7-|-33-333-3-|-55-555-5-|-77-777-5h7-7-|
E|----------|----------|----------|--------------|

G|----------|---------------|----------|---------------|
D|----------|-----------5---|----------|----------5----|
A|----------|-55-555-5h7-75-|----------|-------5h7-75--|
E|-55-555-5-|---------------|-55-555-5-|-77-77-------7-|

G|----------|---------------|----------|-------|
D|----------|-----------5---|----------|-------|
A|----------|-55-555-5h7-75-|----------|-------|
E|-55-555-5-|---------------|-55-555-5-|-77777-|

Chorus:

G|------|---------|
D|---45-|-457-579-|
A|-7----|---------|
E|------|---------| 3x

G|-----------|---------------|-----------|-----------|---|
D|------7777-|-9999-10101010-|-9999-9999-|-9---------|---|
A|-7777------|---------------|-----------|-----------|---|
E|-----------|---------------|-----------|-----------|---|

Adlib:

G|------|---|------|---|
D|------|---|------|---|
A|-7\---|---|-7\---|---|
E|------|---|------|---|

G|------------------|----------|-----------------|----------|
D|----------------7-|-9-7------|---------------7-|-9-7------|
A|--------------9---|-----9-75-|-------------9---|-----9-75-|
E|-777777-----------|----------|-777777----------|----------|

G|------------|---------|
D|------------|---------|
A|-9-77-5-7---|-5-------|
E|----------8-|---7-5-7-| 3x

G|------------|------|
D|------------|------|
A|-9-77-5-7---|-5~~~-|
E|----------8-|------|

			  1._____  2.________			
G|-------|-------|-------|-------||----------|
D|o------|-------|-------|------o||----------|
A|o------|-55555-|-------|------o||----------|
E|-55555-|-------|-55555-|-77777-||-77777777-|

Chorus / Outro:

G|------|---------|
D|---45-|-457-579-|
A|-7----|---------|
E|------|---------| 3x

G|-----------|---------------|-----------|-----|
D|------7777-|-9999-10101010-|-9999-9999-|-9---|
A|-7777------|---------------|-----------|-----|
E|-----------|---------------|-----------|-----|

G|-----------------|-5-4-5-7-9-~~~-|------|
D|-------4-5-4-5-7-|---------------|------|
A|-7-5-7-----------|---------------|-7\---|
E|-----------------|---------------|------|
            
Submit corrections

comments powered by Disqus
↑ Back to top | Mike Hanopol Bass for Tulungan Natin. Lyrics for acoustic guitar and electric guitar. Tablatures and chords are parodies/interpretations of the original songs. You may use it for private study, scholarship, research or language learning purposes only