» » »

Kayabangan Bass tabs (ver.1)

Artists:  A B C D E F G H I J K L M N O P Q R S T U V W X Y Z # 

Kayabangan Bass tabs (ver.1)

Mike Hanopol
Rating:
0/5 (0 votes)

Hard to play? Try these video lessons and learn fast.
                Intro:

G|---------------|
D|---------------|
A|-55---3-55---3-|
E|----5------5---| 6x

G|-----------------|----------|
D|-----------------|----------|
A|---5-8-----4-7---|-5-~~~~~~-|
E|-6-----6-5-----5-|----------|

Verse I:

G|---------------|
D|---------------|
A|-55---3-55---3-|
E|----5------5---| 4x

G|---------------|
D|-55---3-55---3-|
A|----5------5---| 
E|---------------| 

G|---------------|
D|---------------|
A|-55---3-55---3-|
E|----5------5---| 

G|---------------|----------|
D|-77---5-77---5-|----------|
A|----7------7---|----------|
E|---------------|-6-~~~~~~-| 

Verse II: Do Verse I pattern, but add the pattern below:

G|-----------|----------|----------|
D|-----------|-----2-3--|----------|
A|-----0-1---|-3-5------|-5-~~~~~~-|
E|-1-3-------|----------|----------|

Adlib: Do Intro pattern, then Verse II pattern

Verse III: Do Verse I pattern

Verse IV: Do Verse II pattern

Outro:

G|---------------|
D|---------------|
A|-55---3-55---3-|
E|----5------5---| 6x

G|-----------------|----------|
D|-----------------|----------|
A|---5-8-----4-7---|-5-~~~~~~-|
E|-6-----6-5-----5-|----------| 2x

G|-----------------|----------|
D|-----------------|----------|
A|---5-8-----4-7---|-5-(mute)-|
E|-6-----6-5-----5-|----------|
            
Hard to play? Try these video lessons and learn fast. | Correct




comments powered by Disqus
↑ Back to top | Tablatures and chords are parodies/interpretations of the original songs. You may use it for private study, scholarship, research or language learning purposes only