» » »

Mika, Grace Kelly Bass tabs (ver.1)

Artists:  A B C D E F G H I J K L M N O P Q R S T U V W X Y Z # 

Grace Kelly Bass tabs (ver.1)

Mika Tabs
 Rating:
4.6/5 (9 votes)
Grace Kelly lessons Tabs too difficult? Try these video lessons and learn fast
                
Tuning:E,A,D,G
intro
G|--------------------------------------------|
D|----5-545-545-50404-----------------repeat--|
A|--------------------------------------------|
E|--------------------------------------------|
then
G|----------------------------------------------------------------------------------|
D|-----5-545-545--------------------------------------------------------------------|
A|----------------------------------------------------------------------------------|
E|----------------------------------------------------------------------------------|

bridge
G|----------------------------------------------------------------------------------|
D|-----------------------------------0-----------repeat-----------------------------|
A|----------------------0-----------------------------------------------------------|
E|---3--------1---------------------------------------------------------------------|
chorus
G|---------------------------------------------------------------------------------------|
D|--------------------------------2-2--0-0-----------------------------------------------|
A|----------------------0-2-3-3-------------3-3--------repeat----------------------------|
E|---3-----3-3-3-3-3-3-------------------------------------------------------------------|
bear with me on this as it is only my first tab.
just listen to the song to get the idea of when to play what.

| /  slide up
| \  slide down
| h  hammer-on
| p  pull-off
| ~  vibrato
| +  harmonic
| x  Mute note
===============================================================================
            
Submit corrections

comments powered by Disqus
↑ Back to top | Mika Bass for Grace Kelly. Lyrics for acoustic guitar and electric guitar. Tablatures and chords are parodies/interpretations of the original songs. You may use it for private study, scholarship, research or language learning purposes only