» » »

Mika, Big Girl (You Are Beautiful) Bass tabs (ver.2)

Artists:  A B C D E F G H I J K L M N O P Q R S T U V W X Y Z # 

Big Girl (You Are Beautiful) Bass tabs (ver.2)

Mika Tabs
 Rating:
4/5 (4 votes)
Big Girl (You Are Beautiful) lessons Tabs too difficult? Try these video lessons and learn fast
1
                Hey all, this one was quite difficult for me to tab, 'cause I couldn't hear wich tones 
was playing exactly. Anyway, enjoy the tab :)

Release note: 2007

Intro
G|-4-4-4-4-4-4-2-2|
D|----------------|
A|2-2-2-2-2-2-0-0-|
E|----------------|

Verse
G|-4-4-4-4---------2-2-2-2-------------|
D|---------2-2-2-2---------4-4-4-4---2-|  x3
A|2-2-2-2---------0-0-0-0--------------|
E|--------0-0-0-0----------2-2-2-2--0--|

Pre-Chorus
G|-4-4-4-4-2-2-2-------------------|
D|-----------------2-2-2-2--4-4-4-4|
A|2-2-2-2-0-0-0-0------------------|
E|----------------0-0-0-0--2-2-2-2-|

Chorus
G|-4-4-4-4---------2-2-2-2-------------|
D|---------2-2-2-2---------4-4-4-4---2-| x2
A|2-2-2-2---------0-0-0-0--------------|
E|--------0-0-0-0----------2-2-2-2--0--|

Verse
G|-4-4-4-4---------2-2-2-2-------------|
D|---------2-2-2-2---------4-4-4-4---2-|  x3
A|2-2-2-2---------0-0-0-0--------------|
E|--------0-0-0-0----------2-2-2-2--0--|

Pre-Chorus
G|-4-4-4-4-2-2-2-------------------|
D|-----------------2-2-2-2--4-4-4-4|
A|2-2-2-2-0-0-0-0------------------|
E|----------------0-0-0-0--2-2-2-2-|


Chorus
G|-4-4-4-4---------2-2-2-2-------------|
D|---------2-2-2-2---------4-4-4-4---2-| x2
A|2-2-2-2---------0-0-0-0--------------|
E|--------0-0-0-0----------2-2-2-2--0--|

Then rest for a while and after that chorus x4

No outro.

Well, there is was.
            
Submit corrections

comments powered by Disqus
↑ Back to top | Mika Bass for Big Girl (You Are Beautiful). Lyrics for acoustic guitar and electric guitar. 1 Tablatures and chords are parodies/interpretations of the original songs. You may use it for private study, scholarship, research or language learning purposes only