» » »

You Can't Win Tabs (ver.1)

Artists:  A B C D E F G H I J K L M N O P Q R S T U V W X Y Z # 

You Can't Win Tabs (ver.1)

Mighty Mighty Bosstones
Rating:
0/5 (0 votes)

Hard to play? Try these video lessons and learn fast.
                
Intro
|--------------------|-----------------------|--------------|-----------------------|
|--------------------|-----------------------|--------------|-----------------------|
|--------------------|--5--5--5--4--4--4--4--|--------------|--5--5--5--------------|
|--2--2--2--2--------|--5--5--5--4--4--4--4--|--2--2--2--2--|--5--5--5--5--5--4-----|
|--2--2--2--2--------|--3--3--3--2--2--2--2--|--2--2--2--2--|--3--3--3-----------2--|
|--0--0--0--0--------|-----------------------|--0--0--0--0--|-----------------------|

|--------------|-----------------------|--------------|-----------------|
|--------------|-----------------------|--------------|-----------------|
|--------------|--5--5--5--4--4--4--4--|--------------|-----------------|
|--2--2--2--2--|--5--5--5--4--4--4--4--|--2--2--2--2--|-----------5--4--|
|--2--2--2--2--|--3--3--3--2--2--2--2--|--2--2--2--2--|--3--2--3--------|
|--0--0--0--0--|-----------------------|--0--0--0--0--|-----------------|


Verse (Ska strummed)
|--7--8--7--5--|
|--8--8--7--5--|
|--9--9--8--5--|
|--------------|
|--------------|
|--------------|


Chorus                                    v Strum this chord.
|--------------------------|-----------------|
|--------------------------|-----------------|
|--9--9-----9--7--5--4-/5--|--9--9-----9-----|
|--9--9--9--9--7--5--4-/5--|--9--9--9--9--7--|
|--7--7--9--7--5--3--2-/3--|--7--7--9--7--7--|
|--------7-----------------|--------7-----5--|

Intro
Verse
Chorus
Verse
Chorus
Outro (Chorus)
            
Hard to play? Try these video lessons and learn fast. | Correct




comments powered by Disqus
↑ Back to top | Tablatures and chords are parodies/interpretations of the original songs. You may use it for private study, scholarship, research or language learning purposes only