» » »

To California Bass tabs (ver.1)

Artists:  A B C D E F G H I J K L M N O P Q R S T U V W X Y Z # 

To California Bass tabs (ver.1)

Mighty Mighty Bosstones
Rating:
5/5 (2 votes)

Hard to play? Try these video lessons and learn fast.
                This is a pretty cool song with an easy bass line
Intro
E--5-------------------------5------------0~--------------------------------]
A------------7-5---3--5-5-3------------7------------------------------------]
D----7-5-7-5-------------------7-5-7-5--------------------------------------]
G---------------------------------------------------------------------------]

Verse(4X)
E--5-------------------------5------------------------------------]
A------------7-5---3--5-5-3-------------7-7---7-------------------]
D----7-5-7-5-------------------7-5-7-5------5---5-7---------------]
G-----------------------------------------------------------------]

Chorus (4X)
E--5--5----------------------------------------------------------------]
A----------------------------------------------------------------------]
D-------5--5--2~-------------------------------------------------------]
G----------------------------------------------------------------------]

Verse(3X)
E--5-------------------------5------------------------------------]
A------------7-5---3--5-5-3-------------7-7---7-------------------]
D----7-5-7-5-------------------7-5-7-5------5---5-7---------------]
G-----------------------------------------------------------------]

Chorus (4X)
E--5--5----------------------------------------------------------------]
A----------------------------------------------------------------------]
D-------5--5--2~-------------------------------------------------------]
G----------------------------------------------------------------------]

Bridge
E-5-5-5--------------5-5-5--3--0-0-0-0---------------------------------]
A--------3--5-5-5-5----------------------------------------------------]
D----------------------------------------------------------------------]
G----------------------------------------------------------------------]

Verse(3X)
E--5-------------------------5------------------------------------]
A------------7-5---3--5-5-3-------------7-7---7-------------------]
D----7-5-7-5-------------------7-5-7-5------5---5-7---------------]
G-----------------------------------------------------------------]

Chorus (8X)
E--5--5----------------------------------------------------------------]
A----------------------------------------------------------------------]
D-------5--5--2~-------------------------------------------------------]
G----------------------------------------------------------------------]

Outro
E-5-5-5--------------5-5-5--3--0-0-0-0---------------------------------]
A--------3--5-5-5-5----------------------------------------------------]
D----------------------------------------------------------------------]
G----------------------------------------------------------------------]
            
Hard to play? Try these video lessons and learn fast. | Correct




comments powered by Disqus
↑ Back to top | Tablatures and chords are parodies/interpretations of the original songs. You may use it for private study, scholarship, research or language learning purposes only