» » »

Spell Correctly Bass tabs (ver.1)

Artists:  A B C D E F G H I J K L M N O P Q R S T U V W X Y Z # 

Spell Correctly Bass tabs (ver.1)

Mighty Mighty Bosstones
Rating:
0/5 (0 votes)

Hard to play? Try these video lessons and learn fast.
                
Intro :
G|---------------------------------|
D|-----9-76----5-23---4-21---------|
A|--77------33------22------00-33--| x2
E|---------------------------------|

verse:
G|-----------------------|
D|-----------------------|
A|--7777-3333-2222-0000--|
E|-----------------------| x4

chorus:
G|------------------------------------------| 
D|-----67----67----------------67-----------| 
A|--77----77-------67----67-77---77---7777--| x2
E|--------------77----77--------------------|

bridge:
G|---------------------------------|
D|--------------5555-77*-5555-77*--|
A|--7777--3333---------------------| x2 *the 77 are played fast
E|---------------------------------|
            
Hard to play? Try these video lessons and learn fast. | Correct




comments powered by Disqus
↑ Back to top | Tablatures and chords are parodies/interpretations of the original songs. You may use it for private study, scholarship, research or language learning purposes only