» » »

Never Mind Me Tabs (ver.1)

Artists:  A B C D E F G H I J K L M N O P Q R S T U V W X Y Z # 

Never Mind Me Tabs (ver.1)

Mighty Mighty Bosstones
Rating:
0/5 (0 votes)

Hard to play? Try these video lessons and learn fast.
                (Intro)
I put two versions on here.  
They are the same notes, but are played on different frets.

This is the first way...

e[---------------------------------/--------------------------------]
b[--9-------------12-9-10-9--------/-9-------------12-9-10-9-10-9---]
g[----9-11-9-11-9-----------11-9---/---9-11-9-11-9------------------]
d[---------------------------------/--------------------------------]
a[---------------------------------/--------------------------------]
E[---------------------------------/--------------------------------]

This is the second way...

e[-------------7-------------/-------------7---------------]
b[-9---7---7-----9-10-9-7----/-9---7---7-----9-10-9-10-9---]
g[---9---9---9------------9--/---9---9---9-----------------]
d[---------------------------/-----------------------------]
a[---------------------------/-----------------------------]
E[---------------------------/-----------------------------]

That's it!  I personally like the first way better.  Enjoy.
            
Hard to play? Try these video lessons and learn fast. | Correct




comments powered by Disqus
↑ Back to top | Tablatures and chords are parodies/interpretations of the original songs. You may use it for private study, scholarship, research or language learning purposes only