» » »

Let Me Be Bass tabs (ver.1)

Artists:  A B C D E F G H I J K L M N O P Q R S T U V W X Y Z # 

Let Me Be Bass tabs (ver.1)

Mighty Mighty Bosstones
Rating:
4/5 (2 votes)

Hard to play? Try these video lessons and learn fast.
                Intro

G--------------------------------------4---2-----------------------|
D----2--2--2--0----------4---5---5-------------0---0---4---0-------|
A-----------------2---3--------------------------------------------|
E------------------------------------------------------------------|

Verse

G----------------------------------------------------|
D---------5---------5-------5----------7-------------|
A---77-------33-----------------55-------------------|
E-----------------------33---------------------------|

Chorus (can play more than once, your choice)

G------------------------------------------------|
D------------------------------------------------|
A----0--------------------3--------------5-------|   X1
E------------3------0-------------3--------------|

G--------------------------------|
D--------------------------------|
A----0--------------------5------|   X1 first time, X3 second time
E------------3------0------------|

On instrumental part at around 2:21, not sure but I think you play the verse until it 
quiet and you play intro.
            
Hard to play? Try these video lessons and learn fast. | Correct




comments powered by Disqus
↑ Back to top | Tablatures and chords are parodies/interpretations of the original songs. You may use it for private study, scholarship, research or language learning purposes only