» » »

Mighty Mighty Bosstones, Is It? Bass tabs (ver.1)

Artists:  A B C D E F G H I J K L M N O P Q R S T U V W X Y Z # 

Is It? Bass tabs (ver.1)

Mighty Mighty Bosstones Tabs
Rating:
0/5 (0 votes)
Is It? lessons Tabs too difficult? Try these video lessons and learn fast
                
INTRO

G ------------------------------------------|
D ------4>----6--------------4>----6-4-6----|
A -2> 1----4>---4-6-----2>-1----4>----------|
E ------------------0>-------------------0>-|

VERSE 1

G --------------------------------------------------------------------
D ------------------------------------------2-22-2-4-44---------------
A -2-22-1--------2-22---------2-22-1---------------------2-22-1-------
E --------2-22-4-----4-0-00-2--------2-22-4------------4--------2-22-4

G -------------------------------------------------------|
D ---11-44-11-------------11-44-11-------------------2>--|
A -22--------------22---22-----------11-44-11--4>--------|
E ------------00-44--44------------22--------------------|

CHORUS

G ----------------------------------------------------------------------|
D ---11-44-11-------------11-44-11-------------11-44-11--------------2>-|
A -22--------------22---22--------------22---22--------------22---2>----|
E ------------00-44--44------------00-44--44------------00-44--44-------|


VERSE 2

G ----------------------------------------------------------------
D ----1---4-1---1---------2-1---------1---4-1---1-----------------
A -22---2-----2-------1-------2-4--22---2-----2-----------2-------
E -----------------22---2--------------------------00-4-0---4-0-4-

G ------------------------------------------|
D ----1---4-1---1---------2-1-----------2>--|
A -22---2-----2-------1-------2-4---4>------|
E -----------------22---2-------------------|


BRIDGE: Just let the second fret on the A string ring

LAST VERSE

G -------------------------------|
D ----------------------------2>-|
A -2>-----2>------2>------4>-----|
E ----2>------0>------2>---------|



INTRO x1
VERSE 1 x1
CHORUS x1
INTRO x1
VERSE 2 x2
CHORUS x1
BRIDGE x1
LAST VERSE x1
CHORUS x1
INTRO x1
Finish on A String Fret 2
            

comments powered by Disqus
↑ Back to top | Mighty Mighty Bosstones Bass for Is It?. Lyrics for acoustic guitar and electric guitar. Tablatures and chords are parodies/interpretations of the original songs. You may use it for private study, scholarship, research or language learning purposes only