» » »

Mighty Mighty Bosstones, Everybody's Better Tabs (ver.1)

Artists:  A B C D E F G H I J K L M N O P Q R S T U V W X Y Z # 

Everybody's Better Tabs (ver.1)

Mighty Mighty Bosstones Tabs
 Rating:
4/5 (4 votes)
Everybody's Better lessons Tabs too difficult? Try these video lessons and learn fast
                
Tuning: Standard

Verse/Chorus Chords: A - C#m - D - E 
Strumming is pretty easy to figure out
e|---5-5-5--------4-4-4--------2-2-2--------4-4-4-----------|
B|---5-5-5--------5-5-5--------3-3-3--------5-5-5-----------|
G|---6-6-6--------6-6-6--------2-2-2--------4-4-4-----------|
D|----------------------------------------------------------|
A|----------------------------------------------------------|
E|----------------------------------------------------------|

Break Chords: Bm - D 
(The last bit is ska strumming D)
|--2------------------5------------------------------|
|--3------------------7------------------7-7-7-7-----|
|--4------------------7------------------7-7-7-7-----|
|--4------------------7------------------7-7-7-7-----|
|--2------------------5------------------------------|
|----------------------------------------------------|

Second Break

|--2-2-2----------------5-5-5---------------------|
|--3-3-3----------------7-7-7---------------------|
|--4-4-4----------------7-7-7---------------------|
|--4-4-4----------------7-7-7---------------------|
|--2-2-2----------------5-5-5---------------------|
|-------------------------------------------------|

Bridge Chords: A - C#m - D - E
Typical Ska Strumming, notice the change from triplets.
|------------------------------------------------|
|---------------5-5-5--------7-7-7--------9-9-9--|
|--6-6-6--------6-6-6--------7-7-7--------9-9-9--|
|--7-7-7--------6-6-6--------7-7-7--------9-9-9--|
|--7-7-7-----------------------------------------|
|------------------------------------------------|

|--------------------------------------------------|
|---------------5-5-5--------7-7-7--------9-9-9-9--|
|--6-6-6--------6-6-6--------7-7-7--------9-9-9-9--|
|--7-7-7--------6-6-6--------7-7-7--------9-9-9-9--|
|--7-7-7-------------------------------------------|
|--------------------------------------------------|


|-----------------------------------------------------|
|----------------5-5-5-5-------7-7-7-7-------9-9-9-9--|
|--6-6-6-6-------6-6-6-6-------7-7-7-7-------9-9-9-9--|
|--7-7-7-7-------6-6-6-6-------7-7-7-7-------9-9-9-9--|
|--7-7-7-7--------------------------------------------|
|-----------------------------------------------------|


| /  slide up
| \  slide down
| h  hammer-on
| p  pull-off
| ~  vibrato
| +  harmonic
| x  Mute note
            
Submit corrections

comments powered by Disqus
↑ Back to top | Mighty Mighty Bosstones Tabs for Everybody's Better. Lyrics for acoustic guitar and electric guitar. Tablatures and chords are parodies/interpretations of the original songs. You may use it for private study, scholarship, research or language learning purposes only