» » »

Dont Worry Desmond Dekker Bass tabs (ver.1)

Artists:  A B C D E F G H I J K L M N O P Q R S T U V W X Y Z # 

Dont Worry Desmond Dekker Bass tabs (ver.1)

Mighty Mighty Bosstones
Rating:
0/5 (0 votes)

Hard to play? Try these video lessons and learn fast.
                this song repeats a lot

(Intro and everything besides the bridge)
G--------------------------------------------------------------------------]
D-----------------------------6--------6-------------4--------4---4-7------]
A---------4-------4----7-7--7---7--7-7---7----5-5--5---5--5-5---5----------]
E--5-5--5---5--5-5--5------------------------------------------------------]
(Continued)
G-------------------------------]
D-------------------------------]
A--------4----------------------]
E--5-5--5--5--0-0-4-0-5-7-------]

do this 5X until he says in the way desmond dekkers doin fine then ring out on these 
then repeat the intro 5X more and then do the ring outs again.
(Ring Outs)
G----------------------]
D----------------------]
A--4~---------2~-------]
E----------------------]

Bridge (5X)
G--------------------------------------------------------------------]
D-------------------------------7--------7------------2-------2------]
A---------4--------4-----5-5--5---5--5-5---5---0-0--0---0-0-0---0----]
E--2-2--2---2--2-2---2-----------------------------------------------]

(Bridge Continued)
G------------------------]
D---------9--------9-----]
A--7-7--7---7--7-7---7---]
E------------------------]

And then play the intro 3X more and then do the ring outs and then your done.
            
Hard to play? Try these video lessons and learn fast. | Correct




comments powered by Disqus
↑ Back to top | Tablatures and chords are parodies/interpretations of the original songs. You may use it for private study, scholarship, research or language learning purposes only