» » »

Mighty Mighty Bosstones, Dogs And Champlains Tabs (ver.1)

Artists:  A B C D E F G H I J K L M N O P Q R S T U V W X Y Z # 

Dogs And Champlains Tabs (ver.1)

Mighty Mighty Bosstones Tabs
Rating:
0/5 (0 votes)
Dogs And Champlains lessons Tabs too difficult? Try these video lessons and learn fast
                
Intro:
(palm mute)
   E       F#      G       F#      E     F#     C   ?  A
e---------------------------------------------------------|
B---------------------------------------------------------|
G---------------------------------------------------------|
D---------------------------------------------------------|
A--2-2-2-2-4-4-4-4-5-5-5-5-4-4-4-4-2-2-2-4-4-4--10--9--7--|
E--0-0-0-0-2-2-2-2-3-3-3-3-2-2-2-2-0-0-0-2-2-2--8---7--5--|

                                         D D
e---------------------------------------------|
B---------------------------------------------|
G----------------------------------------7-7--|
D----------------------------------------7-7--|
A----------------------------------------5-5--|
E--0---2--3-2--0---2-----0---2--8-7-5---------|


Horns:

e--/9--10--|
B--/9--10--|
G--/9--10--|
D----------|
A----------|
E----------|

Bridge to verse:

(2x. except for the last 2 notes)
e|-----------------------------|
B|-----------------------------|
G|-----------------------------|
D|-----------------------------|
A|-----------------------------|
E|--5---5-8---8--5---5-3---4---|

Replacement for the last 2 notes on the repeat of the last riff:

    E
e|--7-7-7--|
B|--9-9-9--|
G|--9-9-9--|
D|--9-9-9--|
A|--7-7-7--|
E|--7-7-7--|


Verse:
Ska Rythm

   E    A
e|--7---5--|
B|--9---5--|
G|--9---6--|
D|--9---7--|
A|--7---7--|
E|--7---5--|

Chorus:
   A              G    E  F#
E----------------------------|
B----------------------------|
G----------------------------|
D--7-7--7-X-7-X-X-5----2--4--|
A--7-7--7-X-7-X-X-5----2--4--|
E--5-5--5-X-5-X-X-3----0--2--|

Verse 2:
Ska

    E   A   D   A
e|--7---5---5---5--|
B|--9---5---7---5--|
G|--9---6---7---6--|
D|--9---7---7---7--|
A|--7---7---5---7--|
E|--7---5---5---5--|

Verse 3:

"You know, I've made mistakes..."
(same as 2nd verse, just different rythm. listen to song to find rythm.)

Repeat 2nd verse.

God, it's been fun!
            

comments powered by Disqus
↑ Back to top | Mighty Mighty Bosstones Tabs for Dogs And Champlains. Lyrics for acoustic guitar and electric guitar. Tablatures and chords are parodies/interpretations of the original songs. You may use it for private study, scholarship, research or language learning purposes only